Pouy Bros - Raining Shadow Chords & Tabs

 

Raining Shadow Chords & Tabs

Pouy Bros Chords & Tabs

Version: 2 Type: Tab 0 ratings
1 star 2 stars 3 stars 4 stars 5 stars
comments

Raining Shadow Tab

Song TItle: Raining SHadow
Artist: Pouy Bros
Tuning: EADGBE

Hey people ,well this is a song which almost anybody knows but it's really good And fast,Do it well and 
will like it ... Enjoy

Javan Fernandez


E -----------------------------------------------------------------1----2-------------------|
B-----------------4---- --- ----------4------------------4-----------------------4---2---4--|
G----------3-----------1------3-----------1-------3-----------------------------------------|
D-------------------------------------------------------------------------------------------|
A-------------------------------------------------------------------------------------------|
E-------------------------------------------------------------------------------------------|

E -----------------------------------------------------------------------------------------|
B-------------------2-------4--------------------------------------------------------------|
G---------3---------------------------3------1--------------1------------------------------|
D-------------------------------------------------------4----------3-----------------------|
A------------------------------------------------------------------------------------------|
E------------------------------------------------------------------------------------------|


That's the intro and Verses

Here's the Chorus
[ Tab from: http://www.guitartabs.cc/tabs/p/pouy_bros/raining_shadow_tab_ver_2.html ]
E -------------------------------------------------------------------------------------------|
B--------------------------------------------------------------------------------------------|
G-------------------------------5------------------------------------------------------------|
D------7---------9------5-----5---------7-----5----------------------------------------------|
A------7--------9-------5-----3--------7------5----------------------------------------------|
E------5--------7-------3---------------5------3---------------------------------------------|

Bridge..............It's no so fast but you have find the good rithmn

E ------------------------------------------------------------------------------------------|
B-----3-------------1----------------------0-------------------------5----------------0-----|
G-------------0----------0-----------0------------------------0------------------2----------|
D-----------------------------------------------------------------------------2-------------|
A-----2-------------0-----------2-----------2--------3--------------------------------------|
E-------------------------------------------------------------------------------------------|


E ----------------------------------------------------------------------------------------|
B---------1---------3---------------------------------------------------------------------|
G-----------------------------------------------------------------------------------------|
D------------------------------2----------------------------------------------------------|
A-----------------------------------------------------------------------------------------|
E-------------------------------0---------------------------------------------------------|


Well ,that's all ,Please if you need somethng ,some comentarie or something like taht email me at Eagluestorm@hotmail.com

THanks
Comments