Pot - Ulitin Chords & Tabs

 

Ulitin Chords & Tabs

Pot Chords & Tabs

Version: 1 Type: Tab 0 ratings
1 star 2 stars 3 stars 4 stars 5 stars
comments

Ulitin Tab

   
-------------------------------------------------------------------------------
Ulitin - P.O.T
-------------------------------------------------------------------------------
Tabbed by:adelbert enriquez
Email:enriqs_228@yahoo.com

Tuning:standard
Intro and verse: Am7-Bm7-Em7
e|-5---5---5----------7---7---7---------7---7---7---------------------------|
B|-5---5---5----------7---7---7---------6---6---6---------------------------|
G|-5---5---5----------7---7---7---------7---7---7---------------------------|
D|-5---5---5----------7---7---7---------9---9---9---------------------------|
A|--------------------------------------7---7---7---------------------------|
E|--------------------------------------------------------------------------|
 sa aking paningin ibat ibang landas.....(this part is played with some couple of
scratches if u dont know how to then scratch ur face)
[ Tab from: http://www.guitartabs.cc/tabs/p/pot/ulitin_tab.html ]
chorus:C-Bm7-Em7
e|-3---3---3--------2---2---2----------7---7---7----------------------------|
B|-5---5---5--------3---3---3----------6---6---6----------------------------|
G|-5---5---5--------2---2---2----------7---7---7----------------------------|
D|-5---5---5--------4---4---4----------9---9---9----------------------------|
A|-3---3---3--------2---2---2----------7---7---7----------------------------|
E|--------------------------------------------------------------------------|

oh ayoko nang isipin ......hindi na uulitin


ad lib:
e|--5~---------------------7~-----------------------------------------------|
B|--5~---------------------7~-----------------------------------------------|
G|--5~---------------------7~-----------------------------------------------|
D|--5~---------------------7~-----------------------------------------------|
A|--7~---------------------9~-----------------------------------------------|
E|--5~---------------------7~-----------------------------------------------|


e|--5---3---2---3----3\5---3----0---2---3---5-------------------------------|
B|--7---5---3---5----5\7---5----2---3---5---7-------------------------------|
G|--------------------------------------------------------------------------|
D|--------------------------------------------------------------------------|
A|--------------------------------------------------------------------------|
E|--------------------------------------------------------------------------|
REPEAT 4X

REPEAT VERSE 4X
REPEAT CHORUS 8X


OUTRO:C-Am-Bm-G
this tab is 100% accurate i am the first filipino who tabbed this song!
Comments