Postal Service - Such Great Heights Chords & Tabs

 

Such Great Heights Chords & Tabs

Postal Service Chords & Tabs

Version: 1 Type: Bass Tab 1 rating
1 star 2 stars 3 stars 4 stars 5 stars
comments

Such Great Heights Bass Tab

Song: Such Great Heights
Artist: The Postal Service
File Type: Bass Tab

Intro- (0:22)
G---------------------------------------------------------------------------------------------------------------------
D---------------------------------------------------------------------------------------------------------------------
A---------------------------------------------------------------------------------------------------------------------
E-----1-1-1-1-1-1-1-1-5-5-5-5-5-5-5-5-3-3-3-3-3-3-3-3-1-1-1-1-1-1-1-1-5-5-5-5-5-5-5-5-3-3-3-3-3-3-3-3-3-3-3-3-3-3-3-3- x1

Verse- (0:41)
G-------------------------------------------------------------------------------------------------------------------------------------
D-------------------------------------------------------------------------------------------------------------------------------------
A-----------------------------------------------------1-1-1-1-3-3-3-3-----------------------------------------------------------------
E-----1-1-1-1-1-1-1-1-5-5-5-5-5-5-5-5-3-3-3-3-3-3-3-3-----------------1-1-1-1-1-1-1-1-5-5-5-5-5-5-5-5-3-3-3-3-3-3-3-3-1-1-1-1-0-0-0-0- x2
[ Tab from: http://www.guitartabs.cc/tabs/p/postal_service/such_great_heights_btab.html ]
Chorus- (1:25)
G---------------------------------------------------------------------------------------------------------------------------------------
D---------------------------------------------------------------------------------------------------------------------------------------
A-----------------------------0-0-3-3-3-3-3-3-3-3-3-3-3-3-3-5-5-8-8---------------------------------------------------------------------
E-----1-1-1-1-1-1-1-1-1-1-1-1---------------------------------------6-6-6-6-6-6-6-6-6-6-6-6-6-6-6-6-6-5-5-5-5-5-5-5-5-5-5-5-5-5-5-5-5-5- x2

Verse x1 (1:47)

Chorus x2 (2:09)

During Guitar Solo, Bass plays... (2:31)

G---------------------------------------------------
D---------------------------------------------------
A---------------------------------------------------
E-----1-1-1-1-1-1-1-5-5-5-5-5-5-5-5-3-3-3-3-3-3-3-3- x 4

(Short Rest) (3:04)

Chorus x2 (3:05)

Bridge- (3:27)
G---------------------------------------------------
D---------------------------------------------------
A---------------------------------------------------
E-----1-1-1-1-1-1-1-1-5-5-5-5-5-5-5-5-3-3-3-3-3-3-3- x2

Chorus x4 (3:43)
Comments