Postal Service - Recycled Air Acoustic Chords & Tabs

 

Recycled Air Acoustic Chords & Tabs

Postal Service Chords & Tabs

Version: 1 Type: Tab 0 ratings
1 star 2 stars 3 stars 4 stars 5 stars
comments

Recycled Air Acoustic Tab

Song: recycled air (acoustic)
Artist: The Postal Service
Tabbed by: M&M

yup i'm pretty sure that the start is good but the rest is just something i thought 
like it


Intro x2

E------1-3---------1-3-------1-3-1------|
B--4-4---------4-4-------4-4------4-3---|
G---------------------------------------|
D-1--------6-6--------1-1---------------|
A---------------------------------------|
E---------------------------------------|

verse p.m x2
[ Tab from: http://www.guitartabs.cc/tabs/p/postal_service/recycled_air_acoustic_tab.html ]
E------------------------------------------------------------------|
B------------------------------------------------------------------|
G-3-3-3-3-3-3-3-3-8-8-8-8-8-8-8-8-3-3-3-3-3-3-3-3-5-5-5-5-5-5-5-5--|
D-1-1-1-1-1-1-1-1-6-6-6-6-6-6-6-6-1-1-1-1-1-1-1-1-3-3-3-3-3-3-3-3--|
A------------------------------------------------------------------|
E------------------------------------------------------------------|

Intro x2
verse x2
intro x3

bridge/part 1 x2

E--------------------------------------------------------------|
B--------------------------------------------------------------|
G-3-3-3-3-3-3-3-3-3-3-3-3-3-3-3-8-8-8-8-8-8-8-8-8-8-8-8-8-8-8--|
D-1-1-1-1-1-1-1-1-1-1-1-1-1-1-1-6-6-6-6-6-6-6-6-6-6-6-6-6-6-6--|
A--------------------------------------------------------------|
E--------------------------------------------------------------|

bridge/part 2 x3

E----------------------------------|
B-3-3-3-3-3-3-3-3------------------|
G-1-1-1-1-1-1-1-1-3-3-3-3-3-3-3-3--|
D-----------------1-1-1-1-1-1-1-1--|
A----------------------------------|
E----------------------------------|

Intro/finish
Comments