Portishead - Toy Box Chords & Tabs

 

Toy Box Chords & Tabs

Portishead Chords & Tabs

Version: 1 Type: Bass Tab 0 ratings
1 star 2 stars 3 stars 4 stars 5 stars
comments

Toy Box Bass Tab

Portishead
Toy Box
Tabbed by Bar Hazan (vitaminc555@hotmail.com)

Verse 1:

G:-------------------------------------------------------------|
D:-9-----7------5-----------5-7--------------------------------|
A:---8-9---6-7--------4-5-7------------------------------------|
E:-------------------5-----------------------------------------|

Verse 2:
[ Tab from: http://www.guitartabs.cc/tabs/p/portishead/toy_box_btab.html ]
G:-------------------------------------------------------------| repeat alot
D:-------5-7-9-------------------------------------------------|
A:--7~-7-------------------------------------------------------|
E:-------------------------------------------------------------|


Verse1 comes every three Verse 2.
First tab, so take it easy :)


Put a Smile on your face, make the world better
Comments