Portishead - Numb Chords & Tabs

 

Numb Chords & Tabs

Portishead Chords & Tabs

Version: 1 Type: Bass Tab 0 ratings
1 star 2 stars 3 stars 4 stars 5 stars
comments

Numb Bass Tab

Artist: Portishead
Song  : Numb
Album : Dummy
[ Tab from: http://www.guitartabs.cc/tabs/p/portishead/numb_btab.html ]
   (0:00 – 0:11)
G|-------------------|
D|-------------------|
A|-------------------|
E|-8--1-3---78—-1-3--|


     Rest of the song
G|----------------|
D|---1-------1----|
A|-2---3---2------|
E|-------------3--|




Tabbed by elwho  (elwho@hotmail.com)
Comments