Porno Riviste - Tutto Uguale Chords & Tabs

 

Tutto Uguale Chords & Tabs

Porno Riviste Chords & Tabs

Version: 1 Type: Bass Tab

Tutto Uguale Bass Tab

TUTTO UGUALE BASS TAB
ARTISTA: PORNO RIVISTE
TABBED BY BRAINK20 KRIPUNK

VERSE; CHORUS:

G-----------------------------|
D-----------------------------|
A-----5>--------3>--5>--------|
E-3>-------5>-----------------|


BASS SOLO:
[ Tab from: http://www.guitartabs.cc/tabs/p/porno_riviste/tutto_uguale_btab.html ]
G--------------------------|
D--------------------------|
A------5-------3-55--------|
E-3-33---55555-------------|


END:

G--------------------------|
D--------------------------|
A-----5------3--5----------|
E-3-----5------------------|

G-----------------------------|
D-----------------------------|
A-----5>--------3>--5>--------|
E-3>-------5>-----------------|