Porno For Pyros - Hard Charger Chords & Tabs

 

Hard Charger Chords & Tabs

Porno For Pyros Chords & Tabs

Version: 1 Type: Tab 0 ratings
1 star 2 stars 3 stars 4 stars 5 stars
comments

Hard Charger Tab

   
HARD CHARGER
by Porno For Pyros
Album: Howard Stern's 'PRIVATE PARTS' Movie Soundtrack
	


I am going to write down all the guitar parts and tell
you the order of them at the end. I will name the parts
1,2,3 and so on.

Standard Tuning

		Part #1
 D                            E    A
-2-2--2-0--2-0-2-2--2-0--2-0--0----0----0--
-3-3--3-3--3-3-3-3--3-3--3-3--0----0----0--
-2-2--2-2--2-2-2-2--2-2--2-2--1----2----4-- 
-0-0--0-0--0-0-0-0--0-0--0-0--2----2----2-- 
------------------------------2----2----2-- 
------------------------------0----0----0--
[ Tab from: http://www.guitartabs.cc/tabs/p/porno_for_pyros/hard_charger_tab.html ]
		Part #2
                                         F# G# A
------8--8--8--Rest-------8--8--8--Rest--2-2-4-5-5-5-5-
-8----8--8--8--for---8----8--8--8--for---2-2-4-5-5-5-5-
---9--9--9--9--4-------9--9--9--9--4-----3-3-5-6-6-6-6-
-----10-10-10--beats-----10-10-10--beats-4-4-6-7-7-7-7-
-----------------------------------------4-4-6-7-7-7-7-
-----------------------------------------2-2-4-5-5-5-5-

		Part #3
 E E   A A A A A   E E   A A A A A
-0-0---0-0-0-0-0---0-0---0-0-0-0-0--
-0-0---2-2-2-2-2---0-0---2-2-2-2-2--
-1-1---2-2-2-2-2---1-1---2-2-2-2-2--
-2-2---2-2-2-2-2---2-2---2-2-2-2-2--
-2-2---0-0-0-0-0---2-2---0-0-0-0-0--
-0-0---------------0-0--------------

		Part #4

 'Got my hands on something that I could not touch, Hard Charger'
 
-0-0-0-0-0-0-0-0--2-2-0--2-2-0---2-2-2-2-2-2-2-2--
-0-0-0-0-0-0-0-0--3-3-0--3-3-0---4-4-4-4-4-4-4-4--
-1-1-1-1-1-1-1-1--2-2-1--2-2-1---4-4-4-4-4-4-4-4--
-2-2-2-2-2-2-2-2--0-0-2--0-0-2---4-4-4-4-4-4-4-4--
-2-2-2-2-2-2-2-2------2------2---2-2-2-2-2-2-2-2--
-0-0-0-0-0-0-0-0------0------0--------------------


Order

Intro:

1 (2x)
2 (1x)
3 (4x)

Chorus:

4 (4x)

Verse:

3 (8x)
1 (4x)

Solo?



jive7@juno.com

Comments