Porno For Pyros - Freeway Chords & Tabs

 

Freeway Chords & Tabs

Porno For Pyros Chords & Tabs

Version: 2 Type: Bass Tab 0 ratings
1 star 2 stars 3 stars 4 stars 5 stars
comments

Freeway Bass Tab

freeway 
by porno for pyros 
transcription by fea (http://membres.tripod.fr/Fea) 

4/4 

intro 
|---------------------------------|---------------------------------| 
|-------------5-5-5-3-3-3---------|-------------3-3-3-----------5-5-| 
|-------5-5-5-------------5-5-3-3-|-------3-3-3-------3-3-3-5-5-----| 
|-3-3-3---------------------------|-1-1-1---------------------------| 

|-------------------4-4-4---------|---------------------------------| 
|-------------5-5-5-------3-3-----|-------3-3-3---------------------| 
|-------5-5-5-----------------5-5-|-------------3-3-3-5-5-5-7-7-9-9-| 
|-3-3-3---------------------------|-1-1-1---------------------------| 

|-------------------------------------------------| 
|-------------------------------------------------| 
|-10-10-10-8--8--8-----------8--8--8--------10-10-| 
|-------------------10-10-10----------10-10-------| 

|-------------------10-10-10-12-12-12-------------| 
|----------10-10-10-------------------10-10-12-12-| 
|-8--8--8-----------------------------------------| 
|-------------------------------------------------| 

|-------------------10-10-10-------12-12-10-------| 
|----------12-12-12----------12-12----------12----| 
|-10-10-10-------------------------------------10-| 
|-------------------------------------------------| 

|-------------------------------------------------| 
|-------------------------------------------------| 
|-8--8--8--10-10-10-------------------------------| 
|-------------------8--8--8--10-10-10-7--7--8--8--| 

|---------------------------------|---------------------------------| 
|-------5-5-5-3-3-3-------5---3---|-------------3-3-3---------------| 
|-------------------5-5-5---5---5-|-------3-3-3-------3-3-3---------| 
|-3-3-3---------------------------|-1-1-1-------------------1-1-/13\| 
  

double time feel 
0:39 
rythm 1 
|---------------------------------|---------------------------------| 
|---------9---9p7-----------------|---------------------------------| 
|---------------------------------|-9---9p7---------7---7p5---------| 
|/7---7-7-------------------------|---------------------------------| 

|---------------------------------|---------------------------------| 
|---------9---9p7-----------------|---------------------------------| 
|---------------------------------|-9---9p7---------5---7-----------| 
|/7---7-7-------------------------|-----------------------5---5h7---| 

|---------------------------------|---------------------------------| 
|---------9---9p7-----------------|---------------------------------| 
|---------------------------------|-9---9p7---------7---7p5---------| 
|/7---7-7-------------------------|---------------------------------| 

                                                      end of rythm 1 
|---------------------------------|---------------------------------| 
|---------9---9p7-----------------|---------------------------------| 
|---------------------------------|-9---9p7---------7---7p5---7/9---| 
|/7---7-7-------------------------|---------------------------------| 
[ Tab from: http://www.guitartabs.cc/tabs/p/porno_for_pyros/freeway_btab_ver_2.html ]
0:55 
|---------------------------------|---------------------------------| 
|---------9---9p7-----------------|---------------------------------| 
|---------------------------------|---------7h9---------7---9-------| 
|/7---7-7-------------------------|---------------------------------| 

|---------------------------------|---------------------------------| 
|---------9---9p7-----------------|---------------------------------| 
|---------------------------------|---------7h9---------9---7-------| 
|/7---7-7-------------------------|---------------------------------| 

|---------------------------------|---------------------------------| 
|---------9---9p7-----------------|---------------------------------| 
|---------------------------------|---------------------------------| 
|/7---7-7-------------------------|---------------------------------| 

1:06 
rythm 2 
|-------------7-------------------|---------------------------------| 
|-------7-7-7-----------------7---|-------------9---------7---------| 
|-5-5-5-----------------5-7/9---9-|-------9-9-9-------------9-7-9-7-| 
|---------------------------------|-7-7-7---------------------------| 

|-------------------11------/11----11-9-----------| 
|----------------------------------------12-9-----| 
|----------12-12-12----------------------------9--| 
|-10-10-10----------------------------------------| 

                                  end of rythm 2 
|-------------------------------------------------| 
|-------------------9--------7/9---5-----5--------| 
|----------9--9--9--------------------9-----9--7--| 
|-7--7--7-----------------------------------------| 

+ rythm 1 
+ rythm 2 (2x) (w/ variations) 

2:19 
|---------------------------------|---------------------------------| 
|.--------------------------------|--------------------------------.| 
|.--------------------------------|--------------------------------.| 
|-0-----------0-------------------|-7-----------7-------------------| 

2:27 
                                  |1st and 3rd time                 | 
|---------------------------------|---------------------------------| 
|.----------------------------7---|-9---9---7---x-------7-------7--.| 
|.--------------7-----8---9-------|---------------9---x-----9------.| 
|-7---7---10--x-------------------|---------------------------------| 

|2nd time                         |4th time                         | 
|---------------------------------|---------------------------------| 
|-9---9---12--x-11----7---8---9--.|-9---9---7---x-------7---8---9---| 
|--------------------------------.|---------------9---x-------------| 
|---------------------------------|---------------------------------| 

|---------------9---1010--11-/14--|/16--16--14--x-11--1110--9---7---| 
|-9---9---12--x-------------------|---------------------------------| 
|---------------------------------|---------------------------------| 
|---------------------------------|---------------------------------| 

|-9---9---7---x-------------------|---------------------------------| 
|---------------9---9-7-----------|---------------------------------| 
|-------------------------9---7---|-9---9---8---x-7---7-5---7---5---| 
|---------------------------------|---------------------------------| 

+ rythm 1 
+ rythm 2 ad lib. 

comments : feanor@libertysurf.fr 

Comments