Porkers - Deep Breath Chords & Tabs

 

Deep Breath Chords & Tabs

Porkers Chords & Tabs

Version: 1 Type: Bass Tab 0 ratings
1 star 2 stars 3 stars 4 stars 5 stars
comments

Deep Breath Bass Tab

Song: Deep Breath
Band: The Porkers
Album: Hot Dog Daquiri
tabbed by: Oly 

INTRO
Riff 1  x 2
G:-------------------------------------------------------------------
D:-------------------------------------------------------------------
A:-3-------3-------3-----3-------------------------------------------
E:---2-3-2---2-3-2---3-2---2-3-2-------------------------------------

Riff 2
G:-------------------------------------------------------------------
D:-------------------------------------------------------------------
A:-2222-3-2222-3-2222-3-2--------------------------------------------
E:-------------------------------------------------------------------

VERSE
Riff 3  x 3
G:---1-4-1------------------------------22--------------------------
D:-2-------2-1-O-----1-44-1---------O-4----4-O---------1-44-1-------
A:---------------4-2--------2-1-2-3------------4-3-2-2--------2-----
E:--------------------------------------------------------------333-

Riff 1  x 2
CHORUS
G:-------------------------------------------------------------------
D:-------------------------------------------------------------------
A:-------------------------------------------------------------------
E:-O-O-O-O-3-3-3-3-2-2-2-2-3-3-3-3-----------------------------------

G:-------------------------------------------------------------------
D:-------------------------------------------------------------------
A:-----------------3-3-3-3-2-2-2-2-----------------------------------
E:-O-O-O-O-3-3-3-3---------------------------------------------------


G:-------------------------------------------------------------------
D:-------------------------------------------------------------------
A:-------------------------------------------------------------------
E:-O-O-O-O-3-3-3-3-2-2-2-2-3-3-3-3-----------------------------------

[ Tab from: http://www.guitartabs.cc/tabs/p/porkers/deep_breath_btab.html ]
G:-------------------------------------------------------------------
D:-------------------------------------------------------------------
A:-----------------3-3-3-3-222-32-222-32-222-32-2--------------------
E:-O-O-O-O-3-3-3-3---------------------------------------------------

VERSE 2 - Riff 3  x 3
Riff 1  x 2
CHORUS
Deep Breath Part
G:-------------------------------------------------------------------
D:-------------------------------------------------------------------
A:-----------3-5-------------------------3-5-------------------------
E:-0-0-0-0-0-----0-0-0-0-0-3-2-0-0-0-0-0-----0-0-0-0-0-3-2-----------


G:-------------------------------------------------------------------
D:-------------------------------------------------------------------
A:-----------3-5---------------------------5-------------------------
E:-------------------------3-2---------------------------------------

Cool Instrumental Part
G:-----------------------|--------------------------------------------
D:---2---0---------------|--------------------------------------------
A:-----------4---3---2---|--------------------------------------------
E:-0---0---0---0---0-----|-0-0-0-0-0-0--------------------------------
                      x 3
CHORUS  x 2 (1st time through play A:--2-2-2-2-- at end)
G:-------------------------------------------------------------------
D:-------------------------------------------------------------------
A:-------------------------------------------------------------------
E:-------------------------------------------------------------------

OUTRO
G:-------------------------------------------------------------------
D:-------------------------------------------------------------------
A:-3-------3---------------------------------------------------------
E:---2-3-2---2-3-2--0------------------------------------------------
                             The End


Comments