Porkers - Buds For Brains Chords & Tabs

 

Buds For Brains Chords & Tabs

Porkers Chords & Tabs

Version: 1 Type: Bass Tab 0 ratings
1 star 2 stars 3 stars 4 stars 5 stars
comments

Buds For Brains Bass Tab

Song:buds for brains
Band:The porkers
Album:
tabbed by:Jen



Verse:
G:-----------------4-----2-----------------------------------------
D:----2-----2-3-5-5-5-3-3-3-----------------------------------------------
A:-3-3-3-3-3----------------------------------------------------------
E:---------------------------------------------------------------
[ Tab from: http://www.guitartabs.cc/tabs/p/porkers/buds_for_brains_btab.html ]
Chorus:
G:---------------------------------------------------------------
D:--------3-5-5-5-5---------------------------------------------------
A:-5-5-3-3-----------------------------------------------------------
E:---------------------------------------------------------------


well thats pretty much it except the bass solo.
listen to the music and play it real fast.
if u have any corrections email me
general_corey@hotmail.com
Comments