Porcupine Tree - Wedding Nails Chords & Tabs

 

Wedding Nails Chords & Tabs

Porcupine Tree Chords & Tabs

Version: 2 Type: Tab 0 ratings
1 star 2 stars 3 stars 4 stars 5 stars
comments

Wedding Nails Tab

Wedding Nails- Porcupine Tree
Tabbed by Alec Bart

----------------------------------------------------|
-----p------------h-------p----------2--------------|
--2-2-0--0---0---0-2-----2-0---0---2----------------|
-------2---2---2-------------2---1-----2-4-5-4-7-5--|  Riff A
0-----------------------0--------------2-4-5-4-7-5--|
---------------------x3----------------0-2-3-2-5-3--|

--------------------------------------------------------------------|
---------------------------------------h-----h---h-h---h------------|
2-3-2-3--6-7-6-7--9-10-9-10--7-8-7-8--2-3-0-2-3-0-2-3-2-3-0-3-3-0---|  Riff B
--------------------------------------------------------------------|
--------------------------------------------------------------------|
------------------------------------x3------------------------------|

-h-h--3-5-6-----------------------------h-h--3-5-6------|
3-4-3--h-h---h------h------h-h----h----3-4-3--h-h-------|
------------2-3-0--2-3-0--0-2-3--1-3-0------------------|
--------------------------------------------------------|
--------------------------------------------------------|     Riff B Cont'd
--------------------------------------------------------|

---------------------h-h--3-5-6---------------------------h-h--3-5-6---|
---h-----h-----h-h--3-4-3--h-h---h------h-----h-h---h----3-4-3--h-h----|
2-3-0--2-3-0--0-2-3-------------2-3-0--2-3-0-0-2-3-1-3-0---------------|RiffB
-----------------------------------------------------------------------|
-----------------------------------------------------------------------|
-----------------------------------------------------------------------|
[ Tab from: http://www.guitartabs.cc/tabs/p/porcupine_tree/wedding_nails_tab_ver_2.html ]
----------------------------------------------------------------------------|
2-3-2-3--6-7-6-7--9-10-9-10--7-8-7-8-2-3-2-3--6-7-6-7--9-10-9-10--7-8-7-8---|
----------------------------------------------------------------------------|
----------------------------------------------------------------------------|
----------------------------------------------------------------------------|
----------------------------------------------------------------------------|

-Repeat Riff A- Then:

------------------------------------------------------------|
------------------------------------------------------------|
------------------------------------------------------------|
2-4-5-4-7-5---7-5-4-2-4-5-4-7-5--2-4-5-4-7-5-------7-5--5-2-|
2-4-5-4-7-5---7-5-4-2-4-5-4-7-5--2-4-5-4-7-5-------7-5--5-2-|
0-2-3-2-5-3---5-3-2-0-2-3-2-5-3--0-2-3-2-5-3--then-5-3--3-0-| x many times

---------------------------------------------------------------------|
---------------------------------------------------------------------|
---------------------------------------------------------------------|
---------------------------------------------------------------------|
---------------------------------------------------------------------|Repeat Riff B 1/2 step lower
---------------------------------------------------------------------|
Then solo (which ill tab later)

-----------------------------------------|
--------------------------3-2------------|
1-1---1-4---0-1--1-1---1-4---------------|
---4-----4----------4--------------------|
-----------------------------------------|
-----------------------------------------|
Repeat several times

Final Chord:

---
-2-
-0-
---
---
---

*this was my first tab so mind my mistakes

Great Instrumental by porcupine tree
ill tab the solo next chance i get
Comments