Porcupine Tree - Wedding Nails Chords & Tabs

 

Wedding Nails Chords & Tabs

Porcupine Tree Chords & Tabs

Version: 1 Type: Tab 0 ratings
1 star 2 stars 3 stars 4 stars 5 stars
comments

Wedding Nails Tab

Song: Wedding Nails
Band: Porcupine Tree
Standard Tuning
[ Tab from: http://www.guitartabs.cc/tabs/p/porcupine_tree/wedding_nails_tab.html ]
e--------------------------------------------------------------------|
B--------------------------------------------------------------------|
G--------------------------------------------------------------------|
D--------7-7--5---5---5---5--7-------7-7--5---5---5---5--------------|
A-----0---------6---6---6---------0---------6---6---6----------------|
E--------------------------------------------------------------------|
2x

e-----------------------------------------------|
B-----------------------------------------------|
G-----------------------------------------------|
D--2----4/5---4----7---5------------------------|
A--2----4/5---4----7---5------------------------|
E--0----2/3---2----5---3------------------------|

chords are played after a 4 measure rest
Comments