Porcupine Tree - Signify Chords & Tabs

 

Signify Chords & Tabs

Porcupine Tree Chords & Tabs

Version: 1 Type: Tab 0 ratings
1 star 2 stars 3 stars 4 stars 5 stars
comments

Signify Tab

Song:Signify
Artist:Porcupine Tree
CD:Signify

Hi, this is how I play this song.
It's not 100% correct, but it sounds very good.
Listen to the song to find the right rythem.
All the song is played on heavy distortion, and sorry,
but i didn't find the solo.

  Riff 1
e |-----------------------------------------------| 
B |-----------------------------------------------| 
G |-----------------------------------------------|
D |-----------------------------------------------|   play this 11 times
A |-----6~-----6~----6~-----6~-----6~~~-----------|
E |-0-0----0-0----0-0---0-0----0-0----------------|

  Riff 2
e |-----------------------------------------------| 
B |-----------------------------------------------| 
G |-----------------------------------------------|
D |-----------------------------------------------|   play this 2 times
A |-----6~-----6~----6~-----6~-----6-6~~----------|
E |-0-0----0-0----0-0---0-0----0-0----------------|

  Riff 3
e |-----------------------------------------------| 
B |-----------------------------------------------| 
G |-----------------------------------------------|
D |-----------------------------------------------|   play this 1 time
A |-----6~-----6~----6~-----6~-----6---5----------|
E |-0-0----0-0----0-0---0-0----0-3---4---4--------|

  Play riff 2 - 2 times
  Play riff 3 - 1 time

  Riff 4
e |-----------------------------------------------| 
B |-----------------------------------------------| 
G |-----------------------------------------------|
D |-----------------------------------------------|   play this 1 time                                                        A |-5-6-7-----7~-----7~-----7~-----7~~~-----------|
E |-------0-0----0-0----0-0----0-0----------------|
[ Tab from: http://www.guitartabs.cc/tabs/p/porcupine_tree/signify_tab.html ]
e |-----------------------------------------------| 
B |-----------------------------------------------| 
G |-----------------------------------------------|
D |-----------------------------------------------|   play this 1 time                                                        A |-5-6-7-----7~-----7~-----7-(don't let ring)----|
E |-------0-0----0-0----0-0-----------------------|

  Play riff 4 - 22 times!
  Play riff 2 - 2 times

  Riff 5
e |-----------------------------------------------| 
B |-----------------------------------------------| 
G |-----------------------------------------------|
D |-----------------------------------------------|   
A |-----6~-----6~----6~-----6~-----6---5----------|    
E |-0-0----0-0----0-0---0-0----0-3---4---4--------|
                                                      play this 1 time
                                                       
e |-----------------------------------------------| 
B |-----------------------------------------------| 
G |-----------------------------------------------|
D |-----------------------------------------------|
A |-----7---6--------9---8------------------------|
E |-4-5---5---5--6-7---7---7----------------------|

  Riff 6
e |-----------------------------------------------| 
B |-----------------------------------------------|
G |-----------------------------------------------| 
D |-----------------------------------------------|   play this 16 times  
A |-----7~-----6~------5~-----0~~-1-2-1-----------|
E |-0-0----0-0----0-0-----0-0---------------------|

  Play riff 2 - 2 times
  Play riff 5 - 1 time (slowly)

  In the end do this note and let it ring
e |-----------------------------------------------| 
B |-----------------------------------------------|
G |-----------------------------------------------|
D |-----------------------------------------------|
A |-----------------------------------------------|
E |-0-(let ring)----------------------------------|

Enjoy, baba!

Any corrcetions? send to my E Mail adress- oded_gal@hotmail.co.il
Comments