Porcupine Tree - Shes Moved On Chords & Tabs

 

Shes Moved On Chords & Tabs

Porcupine Tree Chords & Tabs

Version: 1 Type: Tab

Shes Moved On Tab

   
-------------------------------------------------------------------------------
			     Porcupine Tree - She's moved on
-------------------------------------------------------------------------------

Tuning: Standard

Intro:

E||---------------------------------||
B||---------------------------------||
G||---------------------------------||
D||-------4----4b---2----2~---------||
A||---------------------------------||
E||--0------------------------------||

E||---------------------------------||
B||---------------------------------||
G||----------------------4---4~-----||
D||-------4----4b---2---------------||
A||---------------------------------||
E||--0------------------------------||

E||---------------------------------||
 B||--------------------------------||
G||---------------------------------||
D||-------4----4b---2----2~---------||
A||---------------------------------||
E||--0------------------------------||

E||-----------------------------------------------||
B||-----------------------------------------------||
G||----------------------4---2------------0---0---||
D||-------4----4b---2-----------5-4--0--1---1---1-||
A||-----------------------------------------------||
E||--0--------------------------------------------||

Repeat through verse.

Chourus:

Em                       Cmaj7
     She changes everytime you look

    D                          Cmaj7
By summer it was all gone, now she's moved on

Em                       Cmaj7
     She called you every other day
[ Tab from: http://www.guitartabs.cc/tabs/p/porcupine_tree/shes_moved_on_tab.html ]
    D                            Cmaj7
So savour it, it's all gone, now she's moved on

2nd verse:

E||---------------------------------||
B||---------------------------------||
G||---------------------------------||
D||-------4----4b---2----2~---------||
A||---------------------------------||
E||--0------------------------------||

E||---------------------------------||
B||---------------------------------||
G||----------------------4---4~-----||
D||-------4----4b---2---------------||
A||---------------------------------||
E||--0------------------------------||

E||---------------------------------||
 B||--------------------------------||
G||---------------------------------||
D||-------4----4b---2----2~---------||
A||---------------------------------||
E||--0------------------------------||

E||-----------------------------------------------||
B||-----------------------------------------------||
G||----------------------4---2------------0---0---||
D||-------4----4b---2-----------5-4--0--1---1---1-||
A||-----------------------------------------------||
E||--0--------------------------------------------||

repeat until chorus

Chourus:

Em                       Cmaj7
     She changes everytime you look

    D                          Cmaj7
By summer it was all gone, now she's moved on

Em                       Cmaj7
     She called you every other day

    D                            Cmaj7
So savour it, it's all gone, now she's moved on


Interlude:

A / C x 2 / Em / G x 2 / D / D# / Em

Repeat the chorus chords under the solo

that's it for my first tab.