Porcupine Tree - Gravity Eyelids Chords & Tabs

 

Gravity Eyelids Chords & Tabs

Porcupine Tree Chords & Tabs

Version: 1 Type: Tab 0 ratings
1 star 2 stars 3 stars 4 stars 5 stars
comments

Gravity Eyelids Tab

   
Porcupine tree-"in absentia"

   Gravity eyelids

tablature by Mike    mail: diseno_b@hotmail.com


intro: Em C#m C Bb


   Em           C#m
A)   Open your eyes now
C              Bb              Em
Hear me out before I lose my mind
                       C#m
I've been waiting for hours
C                    Bb             Em
Let the salt flow, feel my coil unwind


Em           C#m
   Give me a smile please
C                     Bb                 Em
Count the calm and watch my breathing slow
          C#m
Winding me up tease
C              Bb                C#m   C  Bb  G#
Get inside my head and make it show

   C#m         C                  Bb                G#
B)    oh your Gravity eyelids, gravity eyelids come down:/

[ Tab from: http://www.guitartabs.cc/tabs/p/porcupine_tree/gravity_eyelids_tab.html ]
A)Touching your oil skin
Slipping hands down past your waist to find
I've been waiting for hours
Let the salt flow, feel my coil unwind
Go to the edge swim
Brown the eyes that sleep has rendered blind

b)          (here are the three vocals for the second chorus)
1. oh your Gravity eyelids, gravity eyelids come down
2. Come love so young with your gold arms so I wake her
3. Here's a will that will glow in the dark


A)

metal riff part....

    muted guitar
e  ----------------------- --------------|
B  ----------------------- --------------|
G .-----------------------.--------------|
D .-----------------------.--------------|          x2
A  -7-7-5--------5-------- --7-7-5-------|
E  -------6--5-6---6--5-3- --------6-5-6-|


e ------------------------------------------|
B ------------------------------------------|
G ------------------------------------------|
D -------------------------2-5-7------------|
A -7-7-5--------5----------2-5-7--7-5-------|
E -------6--5-6---6--5-3---0-3-5------6-5-6-|

e  --------------------------|
B  --------------------------|
G .-9--9--9-6--6--6-3--3--3--|
D .-9--9--9-6--6--6-3--3--3--|
A  -7--7--7-4--4--4-1--1--1--|
E  -0--0--0------------------|


B)


ok.. there is almost everything
Comments