Porcupine Tree - Feel So Low Chords & Tabs

 

Feel So Low Chords & Tabs

Porcupine Tree Chords & Tabs

Version: 3 Type: Tab 0 ratings
1 star 2 stars 3 stars 4 stars 5 stars
comments

Feel So Low Tab

   
Porcupine Tree - Feel So Low


E (high)
B
G
D
A
E

"/"=bend up to
"\"=bend down to
"^"=hammer on, (pull off)
"="=gliss


The chords are:

E	C#m	A

0	4	0
0	5	2
1	6	2
2	6	2
2	4	0
0	x	0


Main Reef
[ Tab from: http://www.guitartabs.cc/tabs/p/porcupine_tree/feel_so_low_tab_ver_3.html ]
|----0--0--0---|----0--0--0--|----0--0--0--|----0--0--0------|
|---0--0--0--0-|--0--0--0--0-|--0--0--0--0-|--0--0--0--0-----|
|--------------|-------------|-------------|-----------------|
|-2------------|2------------|0------------|-0---------------|
|--------------|-------------|-------------|-----------------|
|--------------|-------------|-------------|-----------------|

Second Reef

|-----0--0--0---|-------------------|----0--0--0---|----0--0--0------|
|---0--0--0--0--|------5---5---5----|---0--0--0--0-|--0--0--0--0-----|
|---------------|------6---6---6----|--------------|-----------------|
|-2-------------|----6---6---6---6--|--------------|-----------------|
|---------------|--4----------------|---0----------|--0--------------|
|---------------|-------------------|--------------|-----------------|

that's all!
l
Comments