Porcupine Tree - Even Less Chords & Tabs

 

Even Less Chords & Tabs

Porcupine Tree Chords & Tabs

Version: 1 Type: Tab 0 ratings
1 star 2 stars 3 stars 4 stars 5 stars
comments

Even Less Tab

   
Even Less -Porcupine Tree

tabbed by seboddos aka zappy the koala

Riff1
E |---------------------------------------|
B |---------------------------------------|
G |--------------------------------4------|
D |---------4-5/4-----------33/5-----5-0-|
A |------5--------5-----------------------|
E |--3/5------------5--1--3---------------|

Riff2
       D                        A#  C   G
E |---------------------6-------3-------|
B |--777----8-7-------6---5---3-------|
G |--77----7------7----7---5---4-------|
D |--77--------------78---5---5-------|
A |--55----------------8---3---5-------|
E |---------------------6-------3-5-6-5-|
[ Tab from: http://www.guitartabs.cc/tabs/p/porcupine_tree/even_less_tab.html ]
Verse (Dm  A#  C  G)
Dm                                A#
A body is washed up on a Norfolk beach
C                                   G
He was a friend that I could not reach
Dm                                A#
He thought I was cold but I understand
C                                   G
But for the grace of god goes another man

Bridge (A   F xx3210)
A                              F xx3210
And I may just waste away from doing nothing
A                     F xx3210
But I'm a martyr to even less

Chorus instrumental (Riff 2)

Verse (Dm  A#  C  G)
Dm                        A#
A choirboy is buried on the moors
C                                          G
Where we used to go dreaming when we were bored
Dm                                        A#
So some kids are best left to fend for themselves
C                                G
And others were born to stack shelves


Bridge (A   F xx3210)
And I may just waste away from doing nothing
But I'm a martyr to even less
Comments