Porcupine Tree - Dark Matter Chords & Tabs

 

Dark Matter Chords & Tabs

Porcupine Tree Chords & Tabs

Version: 1 Type: Bass Tab 0 ratings
1 star 2 stars 3 stars 4 stars 5 stars
comments

Dark Matter Bass Tab

   
Porcupine Tree - Dark matter
Song is in 7/8, these are just the notes, but the rhythm is easy
Also theres alot of sliding I didn't tab.
11 = 1-1, except in outtro, those are C#s
Not 100% sure on the faster part at the end

[0:54]
G|----------|
D|*---7---7*| x4 
A|*00---0--*|
E|----------|

[2:02]
G|--------------------------------------|
D|*---7---7----4---4----3---3----3---5-*| x2
A|*------------------------------------*|
E|-55---5---22---2---11---1---11---3----|

[2:16]
G|----------|
D|*---7---7*| x8 
A|*00---0--*|
E|----------|

[2:43]
G|-----|-------------------|
D|-----|*---7--------3----*| x2
A|-----|*-----------------*|
E|7-3-1|-55---5-3-11---1-3-|  


[3:10]
G|--------|
D|--------|
A|--------|
E|55-3-7-1|

[3:14]
G|--------------------------------------|
D|*---7---7----4---4----3---3----3---5-*| x2
A|*------------------------------------*|
E|-55---5---22---2---11---1---11---3----|

[3:42]
G|----------|
D|*---7---7*| x8 
A|*00---0--*|
E|----------|

[4:09]
G|-----|-------------------|
D|-----|*---7--------3----*| x2
A|-----|*-----------------*|
E|7-3-1|-55---5-3-11---1-3-|  

[ Tab from: http://www.guitartabs.cc/tabs/p/porcupine_tree/dark_matter_btab.html ]
[4:36]
G|--------|
D|--------|
A|--------|
E|55-3-7-1|                                    
                                       
                       
[4:39]
G|--------------|
D|---7----------| x7
A|00------------|
E|-----3-5-3-5/8|

[5:08]
Rest

[5:37]
G|----------|
D|*---7---7*| x4 
A|*00---0--*|
E|----------|

[5:54]
G|--------------------------------------|
D|*---7---7----4---4----3---3----3---5-*| x2
A|*------------------------------------*|
E|-55---5---22---2---11---1---11---3----|

[6:19]
G|-------------------|
D|*---7--------3----*| x8
A|*-----------------*|
E|-55---5-3-11---1-3-|
  
[7:13]
G|------------5-----------|----------5---7---8--|
D|--7-----5-7---7----5-7--|--7---5-7---7---9---9|
A|0-----7---------7------7|0---7----------------|
E|------------------------|---------------------|

G|------------5-----------|---------------------|
D|--7-----5-7---7----5-7--|--7-------5----------|
A|0-----7---------7------7|0---787-3---0232-----|
E|------------------------|---------------------|

G|------------5-----------|----------5---7---8--|
D|--7-----5-7---7----5-7--|--7---5-7---7---9---9|
A|0-----7---------7------7|0---7----------------|
E|------------------------|---------------------|

G|------------5-----------|---------------------|
D|--7-----5-7---7----5-7--|--7------------------|
A|0-----7---------7------7|0---787-3------------|
E|------------------------|---------------------|

[7:40]

G|------------|
D|*---11---11*| x4 
A|*00-----0--*|
E|------------|
Comments