Pop Will Eat Itself - Cape Connection Chords & Tabs

 

Cape Connection Chords & Tabs

Pop Will Eat Itself Chords & Tabs

Version: 1 Type: Bass Tab 0 ratings
1 star 2 stars 3 stars 4 stars 5 stars
comments

Cape Connection Bass Tab

   
  [===============================================]                 
       Cape Connection, by Pop Will Eat Itself
  [===============================================]
     
   ..Tabbed out by my bass teacher and I.
  
Here's the bassline to Cape Connection by the incredible pwei. This baby is
my favorite on DDMA, its a nice one. The bass is really really layered in
there at some parts, but everything here is as accurate as you're going to
get. Now if only someone would tab the guitar, eh..? 
[ Tab from: http://www.guitartabs.cc/tabs/p/pop_will_eat_itself/cape_connection_btab.html ]
                                                     
Part A:     
         /this is played about 10x  ..then comes this\ ( after 'bitten..' )
  G:|-------------------------------|----------------------------------|
  D:|-------------------------------|----------------------------------|
  A:|-------------------------------|--------------------6-6-6-6/5-5---|
  E:|-7/6-6--4-4-4-4--4/6-6--7-7-7--|-7/6-6--4-4-4-4/6-6---------------|
  
  G:|-----------------------------------------------|
  D:|-----------------------------------------------|
  A:|-6-6-6-6-5-5-----------------------------------|
  E:|--------------7-7-7-7-6-6--7-7-7-7-6-6--7-7-7--|


Part B: 

  G:|-----------------------------------------------|
  D:|-----------------------------------------------| 
Comments