Pond - Moth Wings Chords & Tabs

 

Moth Wings Chords & Tabs

Pond Chords & Tabs

Version: 1 Type: Bass Tab 0 ratings
1 star 2 stars 3 stars 4 stars 5 stars
comments

Moth Wings Bass Tab

G||----------------------------------------------|
D||--12*-13-14-12h1412h1412h14------17*-12-1414--|
A||----------------------------------------------| X2
E||---------------------------8-9-12-------------|


G||-------------------------------------------|
D||------------------------17*-12-1414--------|
A||--5-7*-7-5h75h75h7-------------------------| X6
E||------------------7h57h5-------------------|

G||-------------------------------------------|
D||-------------------------------------------|
A||--12*1212---15*1515--17*1717-18*-----------| 
E||-------------------------------------------|


G||----------------------------------|
D||----------------------------------|
A||--1414/17h18----------------------| X8 
E||------------171717171617----------|

G||----------------------|
D||----------------------|
A||--1414/1717171717/5---|
E||----------------------|

[ Tab from: http://www.guitartabs.cc/tabs/p/pond/moth_wings_btab.html ]
G||-------------------------------------------|
D||------------------------17*-12-1414--------|
A||--5-7*-7-5h75h75h7-------------------------| X4
E||------------------7h57h5-------------------|

G||-------------------------------------------|
D||-------------------------------------------|
A||--12*1212---15*1515--17*1717-18*-----------| 
E||-------------------------------------------|


G||----------------------------------|
D||----------------------------------|
A||--1414/17h18----------------------| X8 
E||------------171717171617----------|

G||----------------------|
D||----------------------|
A||--1414/1717171717/5---|
E||----------------------|


G||-------------------------------------------|
D||------------------------17*-12-1414--------|
A||--5-7*-7-5h75h75h7-------------------------| X6
E||------------------7h57h5-------------------|

(FASTER)
G||----------------------------------|
D||----------------------------------|
A||--1414/17h18----------------------| X6
E||------------171717171617----------|

BY YONATHANGARFIAS
@YONATHANGARFIAS
Comments