Polysics - Lookin Lookin Gaa Chords & Tabs

 

Lookin Lookin Gaa Chords & Tabs

Polysics Chords & Tabs

Version: 1 Type: Bass Tab

Lookin Lookin Gaa Bass Tab

   
Polysics - New Wave Jacket
Polysics or Die!!!
Bassist - Fumi
www.polysics.com

Standard Tuning

G|-------------|
D|-------------|
A|---------3---|
E|-3-1-3-1---2-|

G|------------------|
D|------------------|
A|-5555555555555555-|
E|------------------|

G|------------------|------------------|------------------|--------------|
D|------------------|------------------|------------------|--------------|
A|---------77777575-|---------5544--44-|---------77777575-|---------3~---|
E|-33333355---------|-33333333----33---|-33333355---------|-33333333-----|

G|------------------------------|-------------------|
D|--------------------4-------4-|-------------------|
A|-3-2-1-0--------33------33----|-3-2-1-0-----55555-|
E|---------4-3--22--22--22--22--|---------4-3-------|
[ Tab from: http://www.guitartabs.cc/tabs/p/polysics/lookin_lookin_gaa_btab.html ]
G|------------------|------------------|------------------|--------------|
D|------------------|------------------|------------------|--------------|
A|---------77777575-|---------5544--44-|---------77777575-|---------3~---|
E|-33333355---------|-33333333----33---|-33333355---------|-33333333-----|

G|------------------------------|-------------------|
D|--------------------4-------4-|-------------------|
A|-3-2-1-0--------33------33----|-3-2-1-0-----55555-|
E|---------4-3--22--22--22--22--|---------4-3-------|

G|-------------|
D|-------------|
A|---------3---|
E|-3-1-3-1---2-|

guitar solo
G|-----------------|
D|-----------------|
A|---------------1-|
E|-33-133-133-133--|

G|------------------|------------------|------------------|--------------|
D|------------------|------------------|------------------|--------------|
A|---------77777575-|---------5544--44-|---------77777575-|---------3~---|
E|-33333355---------|-33333333----33---|-33333355---------|-33333333-----|

G|------------------------------|---------------------------|
D|--------------------4-------4-|---------------------------|
A|-3-2-1-0--------33------33----|-3-2-1-0-----5555555555555-|
E|---------4-3--22--22--22--22--|---------4-3---------------|

G|-------------|
D|-------------|
A|---------3---|
E|-3-1-3-1---2-|

G|---|
D|---|
A|---|
E|-3-|

www.myspace.com/jenovaisback