Polysics - Buggie Techinica Chords & Tabs

 

Buggie Techinica Chords & Tabs

Polysics Chords & Tabs

Version: 1 Type: Bass Tab

Buggie Techinica Bass Tab

   
Polysics - Buggie Techinica
Polysics or Die!!!
Bassist - Fumi
Tabbed by: myspace.com/jenovaisback

Standard Tuning

/ = slide    x = mute


G|--------|
D|--------|
A|--------|
E|-0/12/0-|


G|-------------------|
D|-------------------|
A|-------------------| x2  (1 to 0 not 10)
E|-01---10---01---10-|


G|-------------------------------|
D|-------------------------------|
A|-------------------------------| x6
E|-0-0-00-0000-00-1-1-11-1111-11-|


     |------x6--------|
G|---|----------------|
D|---|----------------| 
A|---|-----(00)-------| 
E|-9/|2-0-2-55--00----|


G|----------------|
D|----------------|
A|-7-7-77-5-3-2---|
E|----------------|

G|---------|
D|---------|
A|(0-0)----| x32 (!)
E|-5-5-0-3-|
[ Tab from: http://www.guitartabs.cc/tabs/p/polysics/buggie_techinica_btab.html ]
G|-------------------------|
D|-------------------------|
A|-------------------------| x3
E|-45505505505433033033034-|

G|---------------------|
D|---------------------|
A|---------------------|
E|-55055055054x3x3x3x3-|

G|----------------|
D|----------------|
A|-7-7-77-5-3-2---|
E|----------------|

G|---------|
D|---------|
A|(0-0)----| x32
E|-5-5-0-3-|

G|-------------------------|
D|-------------------------|
A|-------------------------| x3
E|-45505505505433033033034-|

G|---------------------|
D|---------------------|
A|---------------------|
E|-55055055054x3x3x3x3-|

G|----------------|
D|-2-2-22-0-------|
A|----------3-2---| x2 
E|----------------|

G|--------------2-|
D|-2-2-22-0-------|
A|----------3-2---| 
E|----------------|

its quite a fast song so keep practicing.