Poltz Steve - Everything About You Chords & Tabs

 

Everything About You Chords & Tabs

Poltz Steve Chords & Tabs

Version: 2 Type: Chords 0 ratings
1 star 2 stars 3 stars 4 stars 5 stars
comments

Everything About You Chords

   
#----------------------------------PLEASE NOTE--------------------------------#
#This file is the author's own work and represents their interpretation of the#
#song. You may only use this file for private study, scholarship, or research.#
#-----------------------------------------------------------------------------#
#-- File created with Instab - http://www.pconline.com/~smcarey/instab.html --#
#-----------------------------------------------------------------------------#

Author/Artist: Steve Poltz
Title: Everything About You
Album: One Left Shoe
Transcribed by: Joe Dubberly
Email: joedubberly@hotmail.com

-----------------------------3------------------------------------------------
----3---3---3---3----3---3----------------------------------------------------
------0---0---0---0----0---0---0------0---------------------------------------
----------------------------------0h2---0-------------------------------------
---------------------3--------------------------------------------------------
----3-------------------------------------------------------------------------
Verses are played like this. 

Verse 1
I love everything about you
I love the way you comb your hair
And I love the way you sachet in the room
Your perfume lingers in the air

[ Tab from: http://www.guitartabs.cc/tabs/p/poltz_steve/everything_about_you_crd_ver_2.html ]
---------3-------2------------------------------------------------------------
---------3-------3------------------------------------------------------------
---------0-0---2---2----------------------------------------------------------
------0------0-------0--------------------------------------------------------
------------------------------------------------------------------------------
---3--------------------3-----------------------------------------------------
G D G 
Chorus Strumming pattern is repeated.

Chorus
G D G
I love everything about you
G D
Oh about you
G
Mmmmmm

Verse 2
I love the way you lick your lips, dear
You got fireworks in your head
And I love the way you bring me water
When I'm thirsty in your bed

Chorus

Bridge
G D C
You were surely kissed by angels
G D C
Look at the freckles on your face
G D C
You got the devil in your eyes
G D C
You disappear without a trail

Solo

Verse 3
I love sneaking up behind you
When you're looking in the mirror
The way your eyes lock into mine, dear
Without guilt and without fear

Chorus


Chords used
--3-----3----2----------------------------------------------------------------
--3-----3----3----------------------------------------------------------------
-------------2----------------------------------------------------------------
-------2-----0----------------------------------------------------------------
--2-----3---------------------------------------------------------------------
--3---------------------------------------------------------------------------
G C D 
Comments