Police - Every Breath You Take Chords & Tabs

 

Every Breath You Take Chords & Tabs

Police Chords & Tabs

Version: 1 Type: Bass Tab 0 ratings
1 star 2 stars 3 stars 4 stars 5 stars
comments

Every Breath You Take Bass Tab

Artist(S): The Police
Song Title: Every Breath You Take
Originaly Tabbed By: mike@honet7.att.com
Corrections by: Luke Bushell (flea_bass_playa@hotmail.com)

The original tabbing was way incorect but it helped in the corrections. 
First thing is that the Tab half a step down into Eb, Ab, Db, Gb tuning
not D tuning, ok here we go

Verse

Gb---------------------
Db---------------------
Ab-------------5---7---
Eb----5----2---------5-
plays the 1st 2 notes x16 each
and the next 2 x8
and the last note x16

Verse fill

Gb---------------------
Db-------------------4-
Ab-------------5---7---
Eb----5----2-----------
sam deal as above

Chours "oh can't you see.." bit

Gb-----------------
Db-----------------
Ab-5-3-0-2-7-------
Eb-----------------
play the 1st 2 notes x8
and the last 3 x16

Bridge
[ Tab from: http://www.guitartabs.cc/tabs/p/police/every_breath_you_take_btab.html ]
Gb-----------------------------|-----------------------------
Db-3-3-3--3-3-3--3-3-3--3-3-3--|------3------3------3------3-
Ab------3------3------3------3-|-3-3-3--3-3-3--3-3-3--3-3-3--
Eb-----------------------------|-----------------------------
play x2

2nd fill

Gb--------------------------------------------------------------------
Db4444444444444444-------------------44444444444444444-------44444444-
Ab----------------55555555-77777777----------------------------------5
Eb----------------------------------------------------2222222---------
play once

playing order
verse x1
verse fill x1
verse x1
Chours x1
verse fill x1
bride x2
verse fill x1
verse x1
Chours x1
verse fill x1
2nd fill x1
verse till fade out

well thats it sorry i could fill in all the numbers my e-mail thing is to 
small
later

Comments