Polaris - Hey Sandy Chords & Tabs

 

Hey Sandy Chords & Tabs

Polaris Chords & Tabs

Version: 4 Type: Tab 0 ratings
1 star 2 stars 3 stars 4 stars 5 stars
comments

Hey Sandy Tab

Okay, here's the solo for this song.
Hey Sandy(solo)
tabbed by Alex Guerrero(a.k.a.SLASH4PRES)
email: arrowbat@yahoo.com
[ Tab from: http://www.guitartabs.cc/tabs/p/polaris/hey_sandy_tab_ver_4.html ]
e|12-10-9--------------------10-9--12-10-9----------------------10-9-|
B|-------10-10-10-10-9-9-9-7---------------10-10-10-10-9-9-9-7-------|
G|-------------------------------------------------------------------|
D|-------------------------------------------------------------------|
A|-------------------------------------------------------------------|
E|-------------------------------------------------------------------|
(Ending Chords)
e|---------------------------|
B|---------------------------|
G|---------------------------|
D|7-7-7-7-6-6-6-4--4-4-6-6-6-|
A|5-5-5-5-4-4-4-2--2-2-4-4-6-|
E|---------------------------|
That's it. I was kinda iffy about the final chords, so it might be wrong. This is my 
tab, so be nice.SLASH 4 PRESIDENT!
Comments