Polaris - Hey Sandy Chords & Tabs

 

Hey Sandy Chords & Tabs

Polaris Chords & Tabs

Version: 1 Type: Tab 0 ratings
1 star 2 stars 3 stars 4 stars 5 stars
comments

Hey Sandy Tab

   
I've looked for a tab of this song everywhere but couldn't find it so i decided to do it myself.
its the opening theme to The Adventures of Pete and Pete and a really cool song anyways.


Intro/Chorus

    E   D   C#  B                A  G# A
e|--7---5---4---7----------------5--4--5---|
B|--9---7---6---7----------------5--4--5---|
G|--9---7---6---8----------------6--5--6---|
D|--9---7---6---9----------------7--6--7---|
A|--7---5---4---9----------------7--6--7---|
E|--------------7----------------5--4--5---|


Verse

e|--5---5---2---0--|B|--5---7---2---0--|
G|--6---7---5---4--|
D|--7---7---4---2--|
A|--7---5---4---2--|
E|--5-------2---0--|
You play the D on the 10th fret to make it easier if you need to


Solo

[ Tab from: http://www.guitartabs.cc/tabs/p/polaris/hey_sandy_tab.html ]
e|--10-9--------------------------------------------10-9-----|
B|-------10---10--10--10-10--9--9--9---7--7--7--7--------10--|x2
G|-----------------------------------------------------------|

e|--------------------------10--10--10-10--9--9--9-----------|
B|--10--10--10-10--9--9--9-----------------------------------|
G|-----------------------------------------------------------|

e|-----------------------------------------------------------|
B|--10---10--10--10-10--9--9--9---7--7--7--7---9--9--9-------|
G|-----------------------------------------------------------|

Lyrics

Hey smilin strange
You lookin happily deranged
*(don't know what hes saying)*
Or have you picked your target yet
Hey Sandy ai yai yai yai...
Don't you talk back ai yai yai yai, Hey Sandy
Four feet away
End of speech it's the end of the day
We was only funnin',
But guiltily I thought you had it comin'
Hey Sandy ai yai yai yai
Don't ya talk back, Hey Sandy

(ai yai yai yai...)Hey Sandy
ai.........
Comments