Polaris - Hey Sandy Pete And Pete Theme Song Chords & Tabs

 

Hey Sandy Pete And Pete Theme Song Chords & Tabs

Polaris Chords & Tabs

Version: 1 Type: Tab 0 ratings
1 star 2 stars 3 stars 4 stars 5 stars
comments

Hey Sandy Pete And Pete Theme Song Tab

Intro

E---------------------------------------------------------------------
B---------------------------------------------------------------------
G---------------------------------------------------------------------
D---7-6-4-------------------------------------------------------------
A---5-4-2-------------------------------------------------------------
E---------------------------------------------------------------------

Verse
[ Tab from: http://www.guitartabs.cc/tabs/p/polaris/hey_sandy_pete_and_pete_theme_song_tab.html ]
E---------------------------------------------------------------------
B---------------------------------------------------------------------
G--------7-77---------------------------------------------------------
D--7-77--7-77--4-44--2-22---------------------------------------------
A--7-77--5-55--4-44--2-22---------------------------------------------
E--5-55--------2-22--0-00---------------------------------------------

Chorus

E---------------------------------------------------------------------
B---------------------------------------------------------------------
G---------------------------------------------------------------------
D---7-6-4-----------7-6-4---------------------------------------------
A---5-4-2---7-7-7---5-4-2---7-----------------------------------------
E-----------5-5-5-----------5-----------------------------------------

It's a very basic easy song
Comments