Poison The Well - Zombies Are Good For Your Health Chords & Tabs

 

Zombies Are Good For Your Health Chords & Tabs

Poison The Well Chords & Tabs

Version: 1 Type: Tab 0 ratings
1 star 2 stars 3 stars 4 stars 5 stars
comments

Zombies Are Good For Your Health Tab

Title: Zombies Are Good For Your Health
Artist: Poison the Well
Album: You Come Before You
Tuning: Drop D, down 1 whole step (CGCFAD) 

Tabbed by: Seen K. Leeds (abandapar@socal.rr.com)

___Key___
.  = palm mute
p  = pull-off
~  = ring out 
r  = repeat

  
  Riff 1
D |---------------------|     |--------------|        |------|
A |---------------------|     |--------------|        |------|
F |---44444-44----------| x3  |--------------| end on |------|
C |---44444-44-003------|     |--2-2-2--320--|        |--1~--|
G |---22222-22-003------|     |--2-2-2--320--|        |--1~--|
C |------------003------|     |--2-2-2--320--|        |--1~--|
  pm           ..

  You can play dead notes across the three thickest strings as the fill before...

  Riff 2 (light pm as indicated)
D |----------------------------|      |--00---00---| |--------------|
A |----------------------------|      |--44b--44b--| |--------------|
F |----------------------------|  x3  |------------| |--------------|
C |---------------6p0----------|      |------------| |----1~----1~--|
G |-----------5p0-----5p0-3p0--|      |------------| |----1~----1~--|
C |--6p0-6p0--------------3p0--|      |------------| |--0-1~----1~--|
  pm ... ...                                            .
[ Tab from: http://www.guitartabs.cc/tabs/p/poison_the_well/zombies_are_good_for_your_health_tab.html ]
  (1:01) "I see you, on your side..."
D |-------|---------------------|---------------------------------------------------------|
A |-------|---------------------|---------------------------------------------------------|
F |-------|---------------------|-----------------4r--------4r--------4r------------------| into...
C |-------|---------------------|-----------------4r----0-3-4r----0-3-4r-----0-3-222-320--|
G |-------|----1-1----1-1-------|----1-1----1-1---2r----0-3-2r----0-3-2r-----0-3-222-320--|
C |--0-1--|--0-1-1--0-1-1--0-1--|--0-1-1--0-1-1-0-------0-3-------0-3--------0-3-222-320--|
  pm . .     .      .      . .     .      .     .

  Riff 1, ending with:
C |--1~----5~----|
G |--1~----5~----|
C |--1~----5~----|

  It's at this point when the guitars go bat****, and I couldn't even begin to fathom translating it.
  You can mess around with the high end of the neck, or cop out and play the bass part:
  
  (1:52)
C |--00--1-00--1-00--1-00--1-00--1-00--1-00--1-00--1--|
G |--00--1-00--1-00--1-00--1-00--1-00--1-00--1-00--1--|
C |--00--1-00--1-00--1-00--1-00--1-00--1-00--1-00--1--|
  pm ..  . ..  . ..  . ..  . ..  . ..  . ..  . ..  .

  Then play Riff 2, ending with:
C |--1-1-0-1-1--||
G |--1-1-0-1-1--||
C |--1-1-0-1-1--||
pm       .  


End. Hope it serves you well.

Comments, corrections, kudos, and 'f-yous' are welcome (abandapar@socal.rr.com).
Comments