Poison The Well - Torn Chords & Tabs

 

Torn Chords & Tabs

Poison The Well Chords & Tabs

Version: 5 Type: Tab 0 ratings
1 star 2 stars 3 stars 4 stars 5 stars
comments

Torn Tab

   
lead guitar  intro
d------------------------------------------------------|
A------------------------------------------------------|
F---5--5----6--5------5-5---6--5-----------------------|
C--3--3-3--3--3--3-5--------------5-x------------------|5(on the fifth time, only do the first
G-4-------4--4--4----8-8-8-8--8--8--  part, the 4-3-5--| part)
D-------------------6-----6--6--6----------------------|
verse part 1
d--------------------------------------|
A--------------------------------------|
F-6-66666666-555-8888888-666666666-555-|
C-6-66666666-666-6666666-666666666-666-|x1
G-4-44444444-444-4444444-444444444-444-|
D--------------------------------------|
verse part 2
d------------------|
A------------------|
F------------------|
C-3--33------------| x2
G-3--33-0-3-6-4-3--|
D-1--11------------|
pm   ..
verse part1 x1
verse part2 x2
verse part1 x1
verse part2 x2
verse part1 x1
verse part2 x2 then, let the D# power chord ring
bridge(?)part1                 br. part2
d--------------------         d---------------|
A--------------------         a---------------|
F--------------------         f-6666-6--------|
C-33-33-33-33----5-6- x4 then c-6666-6--------| x1
G-33-33-33-33-4-3----         g-4444-4-8-8-8--|
D-11-11-11-11--------         d--------6-6-6--|
pm.. .. .. ..                   ....
br. pt.1 x4
br. pt.2 x1
br. pt.1 x4
br. pt.2 x1
br. pt.1 x4
br. pt.2 x1
i dont know what this would be called (interlude?)
d---------|
a---------|
f---------|
c-6----8--| x6
g-------8-|
d---------|
verse pt.1 x1
verse pt.2 x2
verse pt.1 x1
verse pt.2 x2
verse pt.1 x1
verse pt.2 x2
verse pt.1 x1
verse pt.2 x2
then this
d-----------------|
a-----------------|
f-----------------|
C-3333-333-33-333-|
G-3333-333-33-333-|
d-1111-111-11-111-|
pm.... ... .. ...
outro
d-------------------------------------------|
a-------------------------------------------|
f-6-66-6-------1010-10-1010-10-1010-10-1010-|
C-6-66-6-88-88-1010-10-1010-10-1010-10-1010-| x5
g-4-44-4-88-88-8-8--8--8-8--8--8-8--8--8-8--|
d--------66-66------------------------------|
pm  ..              .       .       .
finally
d-----------------|
a-----------------|
f-----------------|
C-3333-333-33-333-|
G-3333-333-33-333-|
d-1111-111-11-111-|
pm.... ... .. ...
[ Tab from: http://www.guitartabs.cc/tabs/p/poison_the_well/torn_tab_ver_5.html ]
Comments