Poison The Well - Nerdy Chords & Tabs

 

Nerdy Chords & Tabs

Poison The Well Chords & Tabs

Version: 5 Type: Tab 0 ratings
1 star 2 stars 3 stars 4 stars 5 stars
comments

Nerdy Tab

Nerdy
Poison the Well

* HARMONIC, im going to right things in halves because you hold your finger
lightly over metal things between the two frets
Intro Guitar 1 (harmonics)

e------------------------------------------------------------------
B------------------------------------------------------------------
G------------------------------------------------------------------
D-5(1/2)*-----------5(1/2)*-------------5(1/2)*------4(1/2)*-------
A------5(1/2)*5(1/2)*-----5(1/2)*5(1/2)*------5(1/2)*-------4(1/2)*
E------------------------------------------------------------------

e------------------------------------------------------------------
B------------------------------------------------------------------
G----------------------------------------5(1/2)*------------5(1/2)*
D--------4(1/2)*-------------4(1/2)*-----------5(1/2)*5(1/2)*------
A-4(1/2)*------4(1/2)*4(1/2)*------4(1/2)*-------------------------
E------------------------------------------------------------------
[ Tab from: http://www.guitartabs.cc/tabs/p/poison_the_well/nerdy_tab_ver_5.html ]
e------------------------------------------------------------------
B------------------------------------------------------------------
G---------------5(1/2)*--------4(1/2)---------------4(1/2)*--------
D-5(1/2)*5(1/2)*-------5(1/2)*--------4(1/2)*4(1/2)*-------4(1/2)*-
A------------------------------------------------------------------
E------------------------------------------------------------------

e------------------------------------------------------------------
B------------------------------------------------------------------
G--------4(1/2)*---------------------------------------------------
D-4(1/2)*-------4(1/2)*4(1/2)*~~~----------------------------------
A------------------------------------------------------------------
E------------------------------------------------------------------

Thats roughly the harmonics part, heres guitar 2

d-----------------------------------------------------------------
C-----------------------------------------------------------------
F-----------------------------------------------------------------
C----------------------------33333-33333-33333-3333---------------
G-33333-33333-33333-3333-2-1-55555-55555-55555-5555---------------
D-55555-55555-55555-5555-4-3--------------------------------------

repeat that a couple of times
this is the RIGHT way to play it, trust me

Styngwie Is the greatest guitarist ever......

DONT TAB IF YOU SUCK
Comments