Poison The Well - Nerdy Chords & Tabs

 

Nerdy Chords & Tabs

Poison The Well Chords & Tabs

Version: 2 Type: Tab 0 ratings
1 star 2 stars 3 stars 4 stars 5 stars
comments

Nerdy Tab

   
this song is really easy to play. here you go!




   riff a
E|-----------------------------------------------------------------------
B|-----------------------------------------------------------------------
G|-----------------------------------------------------------------------
D|-3-3-3-3-3----3-3-3------3-3-3-3-3---3-3-3-------3-3-3-3-3-3-3-3-------
A|-3-3-3-3-3----3-3-3------3-3-3-3-3---3-3-3-------3-3-3-3-3-3-3-3-------
D|-3-3-3-3-3----3-3-3------3-3-3-3-3---3-3-3-------3-3-3-3-3-3-3-3-------

   riff b
E|------------------------------------------------------------------------------
B|------------------------------------------------------------------------------
G|------------------------------------------------------------------------------
D|-7-7-7-7-7----7-7-7------7-7-7-7-7----------2-2-2-----------------------------
A|-7-7-7-7-7----7-7-7------7-7-7-7-7----------2-2-2-----------------------------
D|-7-7-7-7-7----7-7-7------7-7-7-7-7----------2-2-2-----------------------------

   riff c
E|-------------------------------------------------------------------------------
B|-------------------------------------------------------------------------------
G|-------------------------------------------------------------------------------
D|-3-3-3-3-3-3----3-3-3-3---------2-2-2-2-2-2----2-2-2-2-------------------------
A|-3-3-3-3-3-3----3-3-3-3---------2-2-2-2-2-2----2-2-2-2-------------------------
D|-3-3-3-3-3-3----3-3-3-3---------2-2-2-2-2-2----2-2-2-2-------------------------
[ Tab from: http://www.guitartabs.cc/tabs/p/poison_the_well/nerdy_tab_ver_2.html ]
E|-------------------------------------------------------------------------------
B|-------------------------------------------------------------------------------
G|-------------------------------------------------------------------------------
D|-0-0-0-0-0-0----0-0-0-0-----8-8-8-8-8-8-----8-8-8-8----------------------------
A|-0-0-0-0-0-0----0-0-0-0-----8-8-8-8-8-8-----8-8-8-8----------------------------
D|-0-0-0-0-0-0----0-0-0-0-----8-8-8-8-8-8-----8-8-8-8----------------------------

   i cant explain how many times you hit the string here but heres the chord
E|-------
B|-------
G|-------
D|-0-----
A|-0-----
D|-0-----

    riff d
E|-----------------------------------------------------------
B|-----------------------------------------------------------
G|----------------------^-^-^-^------------------------------
D|--0-----1-1-1-1-1-1-1-1-1-1-1------------------------------
A|--0--------------------------------------------------------
E|--0--------------------------------------------------------

    riff e
E|-----------------------------------------------------------
B|--------------------------------^-^-^----------------------
G|------------------------1-1-1-1-1-1-1----------------------
D|--0-0-0-0-0-0-0-0-0-0--------------------------------------
A|--0-0-0-0-0-0-0-0-0-0--------------------------------------
E|--0-0-0-0-0-0-0-0-0-0-------------------------------------- 

    riff f
E|-----------------------------------------------------------
B|-----------------------------------------------------------
G|-----------------------------------------------------------
D|--0-0-0-0-0-0-0-0-0-0--------------------------------------
A|--0-0-0-0-0-0-0-0-0-0--------------------------------------
E|--0-0-0-0-0-0-0-0-0-0--------------------------------------

   for the ending just keep hitting the open chord until he says 
   "hold my hand" then stop(by the way speed pick it realy fast,
    not to fast though.)
E|-------
B|-------
G|-------
D|--0----
A|--0----
E|--0----

if you have any questions e-mail me at jsanz1592@yahoo.com. enjoy it
Comments