Poison The Well - Nerdy Chords & Tabs

 

Nerdy Chords & Tabs

Poison The Well Chords & Tabs

Version: 1 Type: Tab 0 ratings
1 star 2 stars 3 stars 4 stars 5 stars
comments

Nerdy Tab

Poison The Well
Nerdy

There aren’t enough tabs for this band online! I better start...

E|-------------------------------------------------------------------------|
B|-------------------------------------------------------------------------|
G|-------------------------------------------------------------------------|
D|-3-3-3-3-3--3-3-3--3-3-3-3-3--3-2-2--7-7-7-7-7--7-7-7--7-7-7-7-7--7-2-2--|
A|-3-3-3-3-3--3-3-3--3-3-3-3-3--3-2-2--7-7-7-7-7--7-7-7--7-7-7-7-7--7-2-2--|
D|-3-3-3-3-3--3-3-3--3-3-3-3-3--3-2-2--7-7-7-7-7--7-7-7--7-7-7-7-7--7-2-2--|(x4)
(Slightly Palm Muted)

E|-------------------------------------------------------------------------|
B|-------------------------------------------------------------------------|
G|-------------------------------------------------------------------------|
D|-3-------2-------0-------8-------------------0---------------------------|
A|-3-------2-------0-------8-------------------0---------------------------|
D|-3-------2-------0-------8-------------------0---------------------------|
 (x11)   (x11)   (x11)   (x11)              (let ring)
[ Tab from: http://www.guitartabs.cc/tabs/p/poison_the_well/nerdy_tab.html ]
E|-------------------------------------------------------------------------|
B|-------------------------------------------------------------------------|
G|-------------------------------------------------------------------------|
D|-0-0-0-0-0--0-0-0--0-0-0-0-0--0-0-0-0--0-0-0-0-0--0-0-0--0-0-0-0-0-------|
A|-0-0-0-0-0--0-0-0--0-0-0-0-0--0-0-0-0--0-0-0-0-0--0-0-0--0-0-0-0-0-------|
D|-0-0-0-0-0--0-0-0--0-0-0-0-0--0-0-0-0--0-0-0-0-0--0-0-0--0-0-0-0-0-------|(x2)

E|-------------------------------------------------------------------------|
B|-------------------------------------------------------------------------|
G|-------------------------------------------------------------------------|
D|--6--------6-6-6-6-6-6-6--6----------------------------------------------|
A|--6--------6-6-6-6-6-6-6--6----------------------------------------------|
D|--6--------6-6-6-6-6-6-6--6----------------------------------------------|(x4)
(let ring)

E|-------------------------------------------------------------------------|
B|-------------------------------------------------------------------------|
G|-------------------------------------------------------------------------|
D|-0-0-0-0--0-0-0-0-0-0----------------------------------------------------|
A|-0-0-0-0--0-0-0-0-0-0----------------------------------------------------|
D|-0-0-0-0--0-0-0-0-0-0----------------------------------------------------|(x8)

E|------------------------------------------------------------------------|
B|------------------------------------------------------------------------|
G|------------------------------------------------------------------------|
D|-0-0-0-0-0-0-0-0--------------------------------------------------------|
A|-0-0-0-0-0-0-0-0--------------------------------------------------------|
D|-0-0-0-0-0-0-0-0--------------------------------------------------------|(x17)
(slightly palm muted)
Comments