Poison The Well - Horns And Tails Chords & Tabs

 

Horns And Tails Chords & Tabs

Poison The Well Chords & Tabs

Version: 1 Type: Tab 0 ratings
1 star 2 stars 3 stars 4 stars 5 stars
comments

Horns And Tails Tab

-------------------------------------------------------------------------------
			     SONG NAME - Band Name
-------------------------------------------------------------------------------
Tabbed by: Crystal
Email: bluepersuasionn@aol.com

Tuning: standard

Verse 1
e|--------------------------|         x7
B|-------7------------------|     Gray chairs cold but here for me,thankfully
G|-------5------------------|     I don't miss your skin, or the way you
D|-------4------5-----------|      always...
A|-------5------5-----------|
E|--------------3-----------|
[ Tab from: http://www.guitartabs.cc/tabs/p/poison_the_well/horns_and_tails_tab.html ]
Chorus
e------2------------|   x4
B------3-------3----|  have something to say I lose myself in you, cut it into
G------2---4---4----|  you with my rusty fingers
D----------4---4----|
A----------2---x----|
E----------2---3----|

 Bridge
e|--------------------------|--------------------|  what I'd do for one more
B|--------------------------|--------------------|  day without you....
G|-----------7--------------|-------7------------|
D|-----2-----5-----4-----5--|--2----5----4----2--|
A|-----3-----5-----4-----5--|--3----5----4----3--|
E|-----1-----3-----2-----3--|--1----3----2----1--|


repeat Verse 1
I'm leavin again on metal heart breaker, and all I wanted to say was........fuck you!


repeat Chorus
Miles away but you still seem to be here, I never took your eyes out of my bag.

End with

e|------------------|   Strum once
B|------------------|
G|-----------9------|
D|-----------9------|
A|-----------7------|
E|------------------|
Comments