Poison The Well - Artists Rendering Of Me Chords & Tabs

 

Artists Rendering Of Me Chords & Tabs

Poison The Well Chords & Tabs

Version: 1 Type: Bass Tab 0 ratings
1 star 2 stars 3 stars 4 stars 5 stars
comments

Artists Rendering Of Me Bass Tab

-------------------------------------
-------------------------------------
-------------------------------------
-77-77-77-66-66-66-77-77-77-66-5-1---

---------------------------------------
---------------------------------------
--------------------------------------- repeat as needed
-000-0000000-00000000-0000000-00000000-

--------------------------------------
--------------------------------------
-------------------------------------- repeat as needed
-5-8-3-1-00000000-5-8-3-1-00000000----

----------    -------------------------------  
----------    -------------------------------   repeat
----------    -0-0--------------------------- as needed
-0-1-0-1--    -0-0---------------------------
[ Tab from: http://www.guitartabs.cc/tabs/p/poison_the_well/artists_rendering_of_me_btab.html ]
--------------------------------------
--------------------------------------   repeat as needed
--------------------------------------
-33333333333333332222222222222222-----

--------------------------------------
--------------------------------------
---1---1---1--------------------------
-0---0---0---00000000000000000--------

-----------------------------------------------------
-----------------------------------------------------
-7-7-7-7-8-8-8-8-7-7-7-7-8-8-8-8---------------------
---------------------------------0000000000000000----

-----------             -----------------------------
----------- repeat      ----------------------3------
-0-0------- as needed   ------------------0-1--------
-0-0-------             -0000000000000000------------
 there u go - rock out    -count the 0's as needed though-
              -NORA RIOT SQUAD
Comments