Poison Idea - Made To Be Broken Chords & Tabs

 

Made To Be Broken Chords & Tabs

Poison Idea Chords & Tabs

Version: 1 Type: Tab 0 ratings
1 star 2 stars 3 stars 4 stars 5 stars
comments

Made To Be Broken Tab

http://www.vh1.com/artists/az/poison_idea/253299/album.jhtml

Band: Poison Idea
Song: Made to be Broken


tabbed by jam9383@yahoo.com


Intro/Interlude Riff

e---------------------------------------------------------------------|
B---------------------------------------------------------------------|
G----10-13-10--------8-11-8------3-6-------3-6------------------------|
D--11---------11/-\9--------9--4-----4---4-----4----------------------|
A---------------------------------------------------------------------|
E---------------------------------------------------------------------|

Verse

e---------------------------------------------------------------------|
B---------------------------------------------------------------------|
G---------------------------------------------------------------------|
D--4-4-4--7-7-7--10-10-10-9-9-10-9--4-4-4--7-7-7--2-2-2-2-2-2---------|
A--4-4-4--7-7-7--10-10-10-9-9-10-9--4-4-4--7-7-7--2-2-2-2-2-2---------|
E--2-2-2--5-5-5---8--8--8-7-7-8--7--2-2-2--5-5-5--0-0-0-0-0-0---------|

Chorus
[ Tab from: http://www.guitartabs.cc/tabs/p/poison_idea/made_to_be_broken_tab.html ]
e---------------------------------------------------------------------|
B---------------------------------------------------------------------|
G----------9---------------9--------------7---6-----------------------|
D--4---7---9---9---4---7---9----4----7----7---6-----------------------|
A--4---7---7---9---4---7---7----4----7----5---4-----------------------|
E--2---5-------7---2---5--------2----5--------------------------------|

Pre-Verse

e---------------------------------------------------------------------|
B---------------------------------------------------------------------|
G------------------------------7-7-7-7-7-7---6-6-6-6-6-6--------------|
D--4-4-4-4-4-4---7-7-7-7-7-7---7-7-7-7-7-7---6-6-6-6-6-6--------------|
A--4-4-4-4-4-4---7-7-7-7-7-7---5-5-5-5-5-5---4-4-4-4-4-4--------------|
E--2-2-2-2-2-2---5-5-5-5-5-5------------------------------------------|

Bridge

e---------------------------------------------------------------------|
B--------------------------------12b~----12b--12b--12b----------------|
G--6-6-6-6-6--4-4-4-4-4---3-------------------------------------------|
D--6-6-6-6-6--4-4-4-4-4---4-------------------------------------------|
A--4-4-4-4-4--2-2-2-2-2---4-------------------------------------------|
E-------------------------2-------------------------------------------|

barely audible part in end of bridge
e---------------------------------------------------------------------|
B---------------------------------------------------------------------|
G---------------------------------------------------------------------|
D---------------------------------------------------------------------|
A--9-12-10-9--x-x-----------------------------------------------------|
E---------------------------------------------------------------------|

any comments/corrections contact me, please rate
Comments