Poison - Your Mama Dont Dance Chords & Tabs

 

Your Mama Dont Dance Chords & Tabs

Poison Chords & Tabs

Version: 1 Type: Bass Tab 0 ratings
1 star 2 stars 3 stars 4 stars 5 stars
comments

Your Mama Dont Dance Bass Tab

   
Your Mama Don't Dance.btab
Poison
TablEdited by Poppamies
Tuning : B E A D G 	Time Signature: 4/4

Tempo 150
 
 |       |       |       |        |       |       |       |        
|--------------------------------|--------------------------------|
|------------------ 22 tahtia introa ilman bassoa ----------------|
|--------------------------------|--------------------------------|
|--------------------------------|--------------------------------|
|--------------------------------|--------------------------------|

 |       |       |       |        |       |       |       |        
|--------------------------------|--------------------------------|
|--------3-----------------------|------------------------1-------|
|4-----4-----------------1-------|--------1-------4---------------|
|----------------4---------------|2-----2-------------------------|
|--------------------------------|--------------------------------|

 |       |       |       |        |       |       |       |        
|--------------------------------|--------------------------------|
|--------3-----------------------|--------------------------------|
|4-----4-----------------1-------|4-----4-------------------------|
|----------------4-----4---------|------------------------1-------|
|--------------------------------|--------4-------5---------------|

 |       |       |       |        |       |       |       |        
|--------------------------------|--------------------------------|
|------------------------1-------|2-----2-1-----------------------|
|--------1-------4---------------|----------------4-------1-------|
|2-------------------------------|--------------------------------|
|--------------------------------|--------------------------------|

 |       |       |       |        |       |       |       |        
|--------------------------------|--------------------------------|
|--------------------------------|--------------------------------|
|4-----4-----------------2-------|4-----4-------------------------|
|--------1-------4---------------|--------1-------2-----2-3-------|
|--------------------------------|--------------------------------|

 |       |       |       |        |       |       |       |        
|--------------------------------|--------------------------------|
|--------------------------------|--------------------------------|
|--------3-----------------------|--------0-------2-----2-3-------|
|4-----4-----------------1-------|2-----2-------------------------|
|----------------4---------------|--------------------------------|

 |       |       |       |        |       |       |       |        
|--------------------------------|--------------------------------|
|--------------------------------|--------------------------------|
|4-----------------------1-------|4-------------------------------|
|--------1-------4---------------|--------------------------------|
|--------------------------------|--------------------------------|
[ Tab from: http://www.guitartabs.cc/tabs/p/poison/your_mama_dont_dance_btab.html ]
 |       |       |       |        |       |       |       |        
|--------------------------------|--------------------------------|
|--------------------------------|4-----4-----------------1-------|
|4-----4-----------------1-------|--------1-------4---------------|
|--------1-------2---------------|--------------------------------|
|--------------------------------|--------------------------------|

 |       |       |       |        |       |       |       |        
|--------------------------------|--------------------------------|
|--------------------------------|--------------------------------|
|4-----4-----------------1-------|4-----4-------------------------|
|--------1-------4---------------|------------------------1-------|
|--------------------------------|--------4-------5---------------|

 |       |       |       |        |       |       |       |        
|--------------------------------|--------------------------------|
|------------------------1-------|2-----2-1-----------------------|
|--------1-------4---------------|----------------4-------1-------|
|2-----2-------------------------|--------------------------------|
|--------------------------------|--------------------------------|

 |       |       |       |        |       |       |       |        
|--------------------------------|--------------------------------|
|--------------------------------|--------------------------------|
|4-----4-----------------1-------|4-----4-------------------------|
|--------1-------4---------------|--------1-------2-----2-3-----3-|
|--------------------------------|--------------------------------|

 |       |       |       |        |       |       |       |        
|--------------------------------|--------------------------------|
|--------------------------------|--------------------------------|
|--------3-----------------------|--------1-------2-----2-3-------|
|4-----4-----------------1-------|2-------------------------------|
|----------------4---4-4---------|--------------------------------|

 |       |       |       |        |       |       |       |        
|--------------------------------|--------------------------------|
|--------------------------------|--------------------------------|
|4-----4-----------------1-------|4-----------------------1-------|
|--------1-------4-----4---------|--------1-------4-----4---------|
|--------------------------------|--------------------------------|

 |       |       |       |        |       |       |       |        
|--------------------------------|--------------------------------|
|--------------------------------|4-----4-----------------1-------|
|4-----4-----------------1/--6---|--------1-------4-----4---------|
|--------1-------4---------------|--------------------------------|
|--------------------------------|--------------------------------|

 |       |       |       |        
|------- ja niin edelleen--------|
|--------------------------------|
|4-----4-----------------1-------|
|--------1-------4-----4---------|
|--------------------------------|


Created with TablEdit http://www.tabledit.com/
Comments