Poison - Unskinny Bop Chords & Tabs

 

Unskinny Bop Chords & Tabs

Poison Chords & Tabs

Version: 1 Type: Bass Tab 0 ratings
1 star 2 stars 3 stars 4 stars 5 stars
comments

Unskinny Bop Bass Tab

TABBED BY: MUSICIAN'S FRIEND WORKS

Intro: Play this untill the pre chorus......
|-------------------------------------------------------|
|-------------------------------------------------------|
|-------------------------------------------------------|
|0--0-0-0-0-0-0-0-0-0-0-0-0-0-0-0-0-0-0-0-0-0-0-0-0-0-0-|
[ Tab from: http://www.guitartabs.cc/tabs/p/poison/unskinny_bop_btab.html ]
P.C:Play this in a melodic way......
|-------------------------------------------------------|
|-------------------------------------------------------|
|0-3----------------------------------------------------|
|----0-0-3----------------------------------------------|

Chorus:Play.......
|-------------------------------------------------------|
|-------------------------------------------------------|
|-3-5-----8---------------------------------------------|
|3----4-5-----------------------------------------------|

I'im NOT 150% that this is correct but it might be.
Comments