Poison - Theatre Of The Soul Chords & Tabs

 

Poison Chords & Tabs

Version: 1 Type: Tab 0 ratings
1 star 2 stars 3 stars 4 stars 5 stars
comments

Theatre Of The Soul Tab

   
The rest of the song will be coming soon.

Tuning:Half-Step Down

eb|3-3--3-3/5--5--5-5/7--5---3------------------------------|
Bb|3-3--3-3/5--5--5-5/7--5---3------------------------------|
Gb|0-0--0-0----0--0-0----0---0------------------------------|
Db|0-0--0-0----0--0-0----0---0------------------------------|
Ab|2-2-----------------------2------------------------------|
Eb|3-3-----------------------3------------------------------|
[ Tab from: http://www.guitartabs.cc/tabs/p/poison/theatre_of_the_soul_tab.html ]
eb|3-3-3--3--3-3/5--5---5-5/7--3--5--3----------------|
Bb|3-3-3--3--3-3/5--5---5-5/7--3--5--3----------------|
Gb|0-0-0--0--0-0----0---0-0----0--0--0----------------|
Db|0-0-0--0--0-0----0---0-0----0--0--0----------------|
Ab|2-2-2--2--------------------2-----2----------------|
Eb|3-3-3--3--------------------3-----3----------------|

eb|5--5-5---3---------|
Bb|5--5-5---3---------|
Gb|0--0-0---0---------|
Db|0--0-0---0---------|
Ab|---------2---------|
Eb|---------3---------|

Please rate and comment:

************************************

| /   slide up
| \   slide down
| h   hammer-on
| p   pull-off
| ~   vibrato
| +   harmonic
| x   Mute note
| b   Bend
| pb  Pre-bend
| br  Bend release
| pbr Pre-bend release
| brb Bend release bend

************************************
Comments