Poison - Talk Dirty To Me Chords & Tabs

 

Talk Dirty To Me Chords & Tabs

Poison Chords & Tabs

Version: 3 Type: Tab 0 ratings
1 star 2 stars 3 stars 4 stars 5 stars
comments

Talk Dirty To Me Tab

"Talk Dirty to Me" (solo) By Poison
tabbed by Kramer

Dave Casey tabbed this out before me.  I just learned this solo tonight and i wanted to make a few
corrections.  This way is closer to the way its played by CC Deville.

|--------------|--------------|--------------------------------|--------------|
|-5-5--3--1--0-|-5-5--3--1--0-|-12-12--10--8----7---5--3--1--0-|-5-5--3--1--0-|
|-5-5--4--2--0-|-5-5--4--2--0-|-12-12--11--9--7---5----4--2--0-|-5-5--4--2--0-|
|--------------|--------------|--------------------------------|--------------|
|--------------|--------------|--------------------------------|--------------|
|--------------|--------------|--------------------------------|--------------|

[ Tab from: http://www.guitartabs.cc/tabs/p/poison/talk_dirty_to_me_tab_ver_3.html ]
|--------------|-------------------------------|-------8-------| do that multiple times.
|-5-5--3--1--0-|-7-7--7-8-8--8-10-10--10-12-12-|-----8---------|
|-5-5--4--2--0-|-7-7--7-9-9--9-11-11--11-12-12-|-b10-----------|(bend the shit out of it)
|--------------|-------------------------------|---------------|
|--------------|-------------------------------|---------------|
|--------------|-------------------------------|---------------|

|3-2-0-----------------|-----------------------|---------------------------|
|-----3-2-0------------|-----------------------|-1-1-1-3-3-3-5-5-5-6-6-6-7-|
|-----------4-2-0------|4-2-0------------------|-2-2-2-4-4-4-5-5-5-6-6-6-7-|
|-----------------4-2-0|------4-2-0------------|---------------------------|
|----------------------|------------3-2-0------|---------------------------|
|----------------------|------------------3-2-0|---------------------------|

|--------------------------|-15-15-15--------------------------------------|
|-b10r10--8--b10r10--8---8-|----------15-15-15-----------------------------|
|--------------------------|-------------------12-12-12--------------------|
|--------------------------|----------------------------12-12-12-----------|
|--------------------------|-------------------------------------9-9-9-----|
|--------------------------|-----------------------------------------------|
Comments