Poison - So Tell Me Why Chords & Tabs

 

So Tell Me Why Chords & Tabs

Poison Chords & Tabs

Version: 1 Type: Bass Tab 0 ratings
1 star 2 stars 3 stars 4 stars 5 stars
comments

So Tell Me Why Bass Tab

Tabbed by Roth135
N_Slayer20@Yahoo.com
http://www.van-halen.cjb.net

DOWN TUNE ONE HALF-STEP ON ALL STRINGS!

Intro
G|--------------------------------------------------------------------| x2
D|--------------------------------------------------------------------|
A|--------------------------------------------------------------------|
E|--0-0-0-7-7-7-7-7-7-5-5-5-5-5-5-5-9-9-9-5-5-5-5-5-5-12-12-7-7-7-7-7-|

Verse
G|---------------------------------------------------------| x2
D|---------------------------------------------------------|
A|---------------------------------------------------------|
E|--12/0------------5---5-5-7-7-12/0------------5---7-7----|
[ Tab from: http://www.guitartabs.cc/tabs/p/poison/so_tell_me_why_btab.html ]
G|---------------------------------------------------------| x2
D|---------------------------------------------------------|
A|---------------------------------------------------------|
E|--12-12-12-7-7----5---5-5-7-7-12-12-12-7-7---5---5-5-7-7-|

Pre Chorus
G|---------------------------------------------------------|
D|---------------------------------------------------------|
A|---------------------------------------------------------|
E|--9-9-9-9-9-9-9-7---7-7-7-7-7-7-2------4-----5------7----|

Chorus (Same as intro)
G|---------------------------------------|
D|---------------------------------------|
A|---------------------------------------|
E|--12/0--5---5-5-7-7-9---5----12-12-7-7-|
Comments