Poison - Rock You Like A Hurricane Chords & Tabs

 

Rock You Like A Hurricane Chords & Tabs

Poison Chords & Tabs

Version: 1 Type: Tab 1 rating
1 star 2 stars 3 stars 4 stars 5 stars
comments

Rock You Like A Hurricane Tab

   
Rock you like a hurricane by Scorpions off the album "Love at first sting"
------------------------     (Schenker/Meine/Rarebell)
                             Tabbed by S.mueller@hit.handshake.de

Patt.1   (for intro (8x), Chorus , Solo)
    E5          G5       A5       D5  E5
e|---------------------------------------------------|
b|---------------------------------------------------|
g|---9--9--9-----------------------7---9--9----------|
D|---9--9--9-----5--5-----7--7-----7---9--9----------|
A|---7--7--7-----5--5-----7--7-----5---7--7----------|
E|---------------3--3-----5--5-----------------------|

Patt.2 Verse (palm muted!)
  |-p.m.------------------------------------------
e|---------------------------------------------------
b|---------------------------------------------------
g|--5--5--5-----9--9--9--9-----5--5--5-----9---7--7--
D|--5--5--5-----9--9--9--9-----5--5--5-----9---7--7--
A|--3--3--3-----7--7--7--7-----3--3--3-----7---5--5--
E|---------------------------------------------------
  |-p.m.------------------------------------------
e|---------------------------------------------------
b|---------------------------------------------------
g|--5--5--5-----9--9--9--9-----5--5--5-----7---7--7--
D|--5--5--5-----9--9--9--9-----5--5--5-----7---7--7--
A|--3--3--3-----7--7--7--7-----3--3--3-----5---5--5--
E|---------------------------------------------------

Patt.3  (Gtr. 2 doubl. w/Patt.2)
e|---------------------------------------------------
b|---------------------------------------------------
g|--5-----------9--------------5-----------9---7--7--
D|--5-----------9--------------5-----------9---7--7--
A|--3-----------7--------------3-----------7---5--5--
E|---------------------------------------------------
[ Tab from: http://www.guitartabs.cc/tabs/p/poison/rock_you_like_a_hurricane_tab.html ]
e|---------------------------------------------------
b|---------------------------------------------------
g|--5-----------9--------------5-----------7---------
D|--5-----------9--------------5-----------7---------
A|--3-----------7--------------3-----------5---------
E|---------------------------------------------------
                   '
Patt. 2 (Palm muted!)
It's early morning the sun comes out
Last night was shaking and pretty loud
My cat is purring and scratches my skin
So what is wrong with another sin
The Bitch is hungry she needs to tell
So give her inches and feed her well
More days to come new places to go
I've got to leave it's time for a show

Here I am, rock you like a hurricane
Here I am, rock you like a hurricane

Patt.2 (Palm Muted!)
My body is burning it starts to shout
Desire is coming it breaks out loud
Lust is in cages 'til storm breaks loose
Just have to make it with someone I choose

Patt.3
The night is calling i have to go
The wolf is hungry he runs to show
He's licking his lips he's ready to win
On the hunt tonight for love at first sting
Patt.1
Here I am, rock you like a hurricane
Here I am, rock you like a hurricane
Here I am, rock you like a hurricane
come on come on baby
Here I am, rock you like a hurricane
rock you like a hurricane

Solo over Patt.1

(acapella -just with flanged drums)
It's early morning the sun comes out
Last night was shaking and pretty loud
My cat is purring and scratches my skin
So what is wrong with another sin

Patt.3
The night is calling i have to go
The wolf is hungry he runs to show
He's licking his lips he's ready to win
On the hunt tonight for love at first sting

Here I am, rock you like a hurricane
are you ready, baby
Here I am, rock you like a hurricane
Here I am, rock you like a hurricane
come on, come on, come on
Here I am, rock you like a hurricane
Here I am, rock you like a hurricane
Comments