Poison - Ride The Wind Chords & Tabs

 

Ride The Wind Chords & Tabs

Poison Chords & Tabs

Version: 1 Type: Tab 0 ratings
1 star 2 stars 3 stars 4 stars 5 stars
comments

Ride The Wind Tab

   
guitar 3

                                                         
D#||--------------------------|--------------------------|
A#||--7--------7--------7-----|--8--------8--------8-----|
F#||--7--------7--------7-----|--7--------7--------7-----|
C#||--0--0--0--0--0--0--0--0--|--0--0--0--0--0--0--0--0--|
G#||--------------------------|--------------------------|
D#||--------------------------|--------------------------|


                                                      
--------------------------|--------------------------|
--7--------7--------7-----|--8--------8--------8-----|
--7--------7--------7-----|--7--------7--------7-----|
--0--0--0--0--0--0--0--0--|--0--0--0--0--0--0--0--0--|
--------------------------|--------------------------|
--------------------------|--------------------------|


                                                      
--------------------------|--------------------------|
--7--------7--------7-----|--8--------8--------8-----|
--7--------7--------7-----|--7--------7--------7-----|
--0--0--0--0--0--0--0--0--|--0--0--0--0--0--0--0--0--|
--------------------------|--------------------------|
--------------------------|--------------------------|


                                                                                
--------------------------|-------------------------|--------------------------|
--7--------7--------7-----|--8--------8-------------|--7--------7--------7-----|
--7--------7--------7-----|--7--------7--------5~---|--7--------7--------7-----|
--0--0--0--0--0--0--0--0--|--0--0--0--0--0--0-------|--0--0--0--0--0--0--0--0--|
--------------------------|-------------------------|--------------------------|
--------------------------|-------------------------|--------------------------|


                                                                                
--------------------------|----------------0--------|--------------3-----------|
--8--------8--------8-----|-------------3-----3-----|-----------3-----3--------|
--7--------7--------7-----|----------4--------------|--------5-----------5-----|
--0--0--0--0--0--0--0-----|-------4-----------------|-----5-----------------5--|
-----------------------0--|--2-------------------3--|--3-----------------------|
--------------------------|-------------------------|--------------------------|


                                                      
--------------------------|--------------------------|
--7--------7--------7-----|--8--------8--------8-----|
--7--------7--------7-----|--7--------7--------7-----|
--0--0--0--0--0--0--0--0--|--0--0--0--0--0--0--0--0--|
--------------------------|--------------------------|
--------------------------|--------------------------|


                                                                                
--------------------------|-------------------------|--------------------------|
--7--------7--------7-----|--8--------8-------------|--7--------7--------7-----|
--7--------7--------7-----|--7--------7--------5~---|--7--------7--------7-----|
--0--0--0--0--0--0--0--0--|--0--0--0--0--0--0-------|--0--0--0--0--0--0--0--0--|
--------------------------|-------------------------|--------------------------|
--------------------------|-------------------------|--------------------------|


                                                                                
--------------------------|----------------0--------|--------------3-----------|
--8--------8--------8-----|-------------3-----3-----|-----------3-----3--------|
--7--------7--------7-----|----------4--------------|--------5-----------5-----|
--0--0--0--0--0--0--0-----|-------4-----------------|-----5-----------------5--|
-----------------------0--|--2-------------------3--|--3-----------------------|
--------------------------|-------------------------|--------------------------|


                                                                         
------------------------|-----------------------|------3-------------3--|
------------------------|------3-------------3--|------3--x-----3----3--|
-------4~------4--x--2--|------2----2--2--x--0--|------0--x-----0----0--|
--4----4~------4--x--2--|------4----2--2--x--0--|------0--x-----0----0--|
--2---------2--------0--|------0----0-----x-----|------------2----------|
------------------------|--------------------3--|--------------------3--|


                                                                           
------------------------|------------0-----------|------------0-----------|
------3--x--------3-----|-------3-------3--------|---------------3--------|
------0--x--------0-----|-------4----------4-----|-------4----------4-----|
------0--x--------0-----|-------4----------------|-------4----------------|
------------2--2-----2--|--2------------------0--|--0---------------------|
------------------------|------------------------|---------------------4--|


                                                                         
-------0----------------|------3----3-----------|-----------------------|
----------3-------x--3--|------3----3--3--3--3--|--5------7----------8--|
-------------4----x--0--|------0----0--0--0--0--|--7------7----------7--|
------------------x--0--|--------------0--0--0--|--0------0----0--0--0--|
------------------------|-----------------------|-----------------------|
--4------------------3--|-----------------3-----|-----------------------|


                                                                          
------------------------|---------------------5--|--------7-----------8--|
-------8-----5--7--7----|-------3-------------8--|--------8-----------8--|
-------7-----7--7--7----|--4----4----2--------0--|--------0--0--0--0--0--|
----0--0--0--0--0--0----|--4---------2-----0-----|-----------------------|
------------------------|--2---------0--0--0-----|-----------------------|
------------------------|------------------3-----|-----------------------|


                                                                           
--------7-----5-----7----|-----------------------|------------------------|
--------8-----8-----8----|--5------7----------8--|-------8-----5--7--7----|
--0--0--0--0--0--0--0----|--7------7----------7--|-------7-----7--7--7----|
-------------------------|--0------0----0--0--0--|----0--0--0--0--0--0----|
-------------------------|-----------------------|------------------------|
-------------------------|-----------------------|------------------------|


                                                                           
---------------------5--|--------7-----------8--|--------7-----5-----7----|
-------3-------------8--|--------8-----------8--|--------8-----8-----8----|
--4----4----2--------0--|--------0--0--0--0--0--|--0--0--0--0--0--0--0----|
--4---------2-----0-----|-----------------------|-------------------------|
--2---------0--0--0-----|-----------------------|-------------------------|
------------------3-----|-----------------------|-------------------------|


                                                      
--------------------------|--------------------------|
--7--------7--------7-----|--8--------8--------8-----|
--7--------7--------7-----|--7--------7--------7-----|
--0--0--0--0--0--0--0--0--|--0--0--0--0--0--0--0--0--|
--------------------------|--------------------------|
--------------------------|--------------------------|


                                                        
-----------------------------|-------------------------|
--10--------10--------10-----|--8--------8-------------|
--7---------7---------7------|--7--------7--------5~---|
--0---0--0--0---0--0--0---0--|--0--0--0--0--0--0-------|
-----------------------------|-------------------------|
-----------------------------|-------------------------|


                                                                                
--------------------------|--------------------------|----------------0--------|
--7--------7--------7-----|--8--------8--------8-----|-------------3-----3-----|
--7--------7--------7-----|--7--------7--------7-----|----------4--------------|
--0--0--0--0--0--0--0--0--|--0--0--0--0--0--0--0-----|-------4-----------------|
--------------------------|-----------------------0--|--2-------------------3--|
--------------------------|--------------------------|-------------------------|


                                                      
--------------3-----------|--------------------------|
-----------3-----3--------|--7--------7--------7-----|
--------5-----------5-----|--7--------7--------7-----|
-----5-----------------5--|--0--0--0--0--0--0--0--0--|
--3-----------------------|--------------------------|
--------------------------|--------------------------|


                                                                                
--------------------------|--------------------------|-------------------------|
--8--------8--------8-----|--7--------7--------7-----|--8--------8-------------|
--7--------7--------7-----|--7--------7--------7-----|--7--------7--------5~---|
--0--0--0--0--0--0--0--0--|--0--0--0--0--0--0--0--0--|--0--0--0--0--0--0-------|
--------------------------|--------------------------|-------------------------|
--------------------------|--------------------------|-------------------------|


                                                                                
--------------------------|--------------------------|----------------0--------|
--7--------7--------7-----|--8--------8--------8-----|-------------3-----3-----|
--7--------7--------7-----|--7--------7--------7-----|----------4--------------|
--0--0--0--0--0--0--0--0--|--0--0--0--0--0--0--0-----|-------4-----------------|
--------------------------|-----------------------0--|--2-------------------3--|
--------------------------|--------------------------|-------------------------|


                                                                            
--------------3-----------|------------------------|-----------------------|
-----------3-----3--------|------------------------|------3-------------3--|
--------5-----------5-----|-------4~------4--x--2--|------2----2--2--x--0--|
-----5-----------------5--|--4----4~------4--x--2--|------4----2--2--x--0--|
--3-----------------------|--2---------2--------0--|------0----0-----x-----|
--------------------------|------------------------|--------------------3--|


                                                                          
------3-------------3--|------------------------|------------0-----------|
------3--x-----3----3--|------3--x--------3-----|-------3-------3--------|
------0--x-----0----0--|------0--x--------0-----|-------4----------4-----|
------0--x-----0----0--|------0--x--------0-----|-------4----------------|
------------2----------|------------2--2-----2--|--2------------------0--|
--------------------3--|------------------------|------------------------|


                                                                          
------------0-----------|-------0----------------|------3----3-----------|
---------------3--------|----------3-------x--3--|------3----3--3--3--3--|
-------4----------4-----|-------------4----x--0--|------0----0--0--0--0--|
-------4----------------|------------------x--0--|--------------0--0--0--|
--0---------------------|------------------------|-----------------------|
---------------------4--|--4------------------3--|-----------------3-----|


                                                                          
-----------------------|------------------------|---------------------5--|
--5------7----------8--|-------8-----5--7--7----|-------3-------------8--|
--7------7----------7--|-------7-----7--7--7----|--4----4----2--------0--|
--0------0----0--0--0--|----0--0--0--0--0--0----|--4---------2-----0-----|
-----------------------|------------------------|--2---------0--0--0-----|
-----------------------|------------------------|------------------3-----|


                                                                          
--------7-----------8--|--------7-----5-----7----|-----------------------|
--------8-----------8--|--------8-----8-----8----|--5------7----------8--|
--------0--0--0--0--0--|--0--0--0--0--0--0--0----|--7------7----------7--|
-----------------------|-------------------------|--0------0----0--0--0--|
-----------------------|-------------------------|-----------------------|
-----------------------|-------------------------|-----------------------|


                                                                          
------------------------|---------------------5--|--------7-----------8--|
-------8-----5--7--7----|-------3-------------8--|--------8-----------8--|
-------7-----7--7--7----|--4----4----2--------0--|--------0--0--0--0--0--|
----0--0--0--0--0--0----|--4---------2-----0-----|-----------------------|
------------------------|--2---------0--0--0-----|-----------------------|
------------------------|------------------3-----|-----------------------|


                                                                     
----------------------|------------------------|----------21r-------|
----------17b---17b---|--17r---------------14--|--------------------|
----------------------|------------16----------|--------------------|
----------------------|------------------------|--------------------|
----------------------|------------------------|--------------------|
----------------------|------------------------|--------------------|


                                                                            
--19~-------------------------------|--14-12-------15-14-12----22b---22b---|
------------15-14-12----15-14-14-12-|--------15-14----------15-------------|
---------------------14-------------|--------------------------------------|
------------------------------------|--------------------------------------|
------------------------------------|--------------------------------------|
------------------------------------|--------------------------------------|


                                                  
--22r-----22--22----------|----------------------|
----------------------15r-|--------15--15~-------|
--------------------------|----------------------|
--------------------------|----------------------|
--------------------------|----------------------|
--------------------------|----------------------|


                                               
----------------------------------------------|
--19-19-x-19--19-19-19-19-19-19-x-15-15-15-15-|
----------------------------------------------|
----------------------------------------------|
----------------------------------------------|
----------------------------------------------|


                                                                         
-------------------------------------------|-----------7-----------7----|
--15-x-12-12-12-12-12--12/10-10-10-10/12---|-------------10-7----7---10-|
-------------------------------------------|--9b--------------9b--------|
-------------------------------------------|----------------------------|
-------------------------------------------|----------------------------|
-------------------------------------------|----------------------------|


                                                                               
---------7-------------7-----------|--10p7------10p7------10p7------10p7----7-|
--7----7---7h10-7----7---10p7----8-|-------10p7------10p7------10p7------10---|
----9b------------9b----------9b---|------------------------------------------|
-----------------------------------|------------------------------------------|
-----------------------------------|------------------------------------------|
-----------------------------------|------------------------------------------|


                                                   
--12p10----14p10----12p10----14p10----12p10-------|
--------12-------12-------12-------12-------12p10-|
--------------------------------------------------|
--------------------------------------------------|
--------------------------------------------------|
--------------------------------------------------|


                                                        
--12r--10-----12--10~---------|--------------------19--|
----------12--------------12r-|---------10-------------|
------------------------------|------------11~---------|
------------------------------|------------------------|
------------------------------|------------------------|
------------------------------|------------------------|


                                                   
--22p19----22p19----22p19----22p19----22p19----22p|
--------19-------19-------19-------19-------19----|
--------------------------------------------------|
--------------------------------------------------|
--------------------------------------------------|
--------------------------------------------------|


                                                                         
--19----22-19-22b---22b---22~---|------------------|--22~---------------|
-----19-------------------------|------------------|--------------------|
--------------------------------|------------------|--------------------|
--------------------------------|------------------|--------------------|
--------------------------------|------------------|--------------------|
--------------------------------|------------------|--------------------|


                                                      
--------0-----5-----3-----|--------0-----5-----3-----|
-----5-----------------0--|-----3-----3--------------|
--5--------5-----5--------|--4--------------4-----0--|
--------------------------|--------------------------|
--------------------------|--------------------------|
--------------------------|--------------------------|


                                                      
--------0-----7-----5-----|--------0-----7-----5-----|
-----7-----------------0--|-----5-----------------0--|
--7--------7-----7--------|--6--------6-----6--------|
--------------------------|--------------------------|
--------------------------|--------------------------|
--------------------------|--------------------------|


                                                      
--------0-----5-----3-----|--------0-----5-----3-----|
-----5-----------------0--|-----3-----3--------------|
--5--------5-----5--------|--4--------------4-----0--|
--------------------------|--------------------------|
--------------------------|--------------------------|
--------------------------|--------------------------|


                                                      
--------0-----7-----5-----|--------0-----7-----5-----|
-----7-----------------0--|-----5-----------------0--|
--7--------7-----7--------|--6--------6-----6--------|
--------------------------|--------------------------|
--------------------------|--------------------------|
--------------------------|--------------------------|


                                                                                
--------0-----5-----3-----|--------0-----5-----3-----||------------------------|
-----5-----------------0--|-----3-----3--------------||---5------7----------8--|
--5--------5-----5--------|--4--------------4-----0--||*--7------7----------7--|
--------------------------|--------------------------||*--0------0----0--0--0--|
--------------------------|--------------------------||------------------------|
--------------------------|--------------------------||------------------------|


                                                                          
------------------------|---------------------5--|--------7-----------8--|
-------8-----5--7--7----|-------3-------------8--|--------8-----------8--|
-------7-----7--7--7----|--4----4----2--------0--|--------0--0--0--0--0--|
----0--0--0--0--0--0----|--4---------2-----0-----|-----------------------|
------------------------|--2---------0--0--0-----|-----------------------|
------------------------|------------------3-----|-----------------------|


                          2x                                                    
--------7-----5-----7-----||--5------7-----------8--|--------7-----5--7--7-----|
--------8-----8-----8-----||--8------8-----------8--|--------8-----8--8--8-----|
--0--0--0--0--0--0--0----*||--0------0--0--0--0--0--|--0--0--0--0--0--0--0--0--|
-------------------------*||------------------------|--------------------------|
--------------------------||------------------------|--------------------------|
--------------------------||------------------------|--------------------------|


                                                                        
--5------7-----------8--|--------7-----------------|-------------------|
--8------8-----------8--|--------8-----8-----------|--3----------------|
--0------0--0--0--0--0--|--0--0--0--0--0--5--5--5--|--2----------------|
------------------------|-----------------5--5--5--|--0----------------|
------------------------|-----------------3--3--3--|-------------------|
------------------------|--------------------------|-------------------|


                                                                            
------------------|------------------|------------------|------------------|
------------------|------------------|------------------|------------------|
------------------|------------------|------------------|------------------|
------------------|------------------|------------------|------------------|
------------------|------------------|------------------|------------------|
------------------|------------------|------------------|------------------|


                                                                            
------------------|------------------|------------------|------------------|
------------------|------------------|------------------|------------------|
------------------|------------------|------------------|------------------|
------------------|------------------|------------------|------------------|
------------------|------------------|------------------|------------------|
------------------|------------------|------------------|------------------|


                                                                             
------------------|------------------|------------------|------------------||
------------------|------------------|------------------|------------------||
------------------|------------------|------------------|------------------||
------------------|------------------|------------------|------------------||
------------------|------------------|------------------|------------------||
------------------|------------------|------------------|------------------||

bret's guitar


                                                         
D#||--------------------------|--------------------------|
A#||--7--------7--------7-----|--8--------8--------8-----|
F#||--7--------7--------7-----|--7--------7--------7-----|
C#||--0--0--0--0--0--0--0--0--|--0--0--0--0--0--0--0--0--|
G#||--------------------------|--------------------------|
D#||--------------------------|--------------------------|


                                                      
--------------------------|--------------------------|
--7--------7--------7-----|--8--------8--------8-----|
--7--------7--------7-----|--7--------7--------7-----|
--0--0--0--0--0--0--0--0--|--0--0--0--0--0--0--0--0--|
--------------------------|--------------------------|
--------------------------|--------------------------|


                                                      
--------------------------|--------------------------|
--7--------7--------7-----|--8--------8--------8-----|
--7--------7--------7-----|--7--------7--------7-----|
--0--0--0--0--0--0--0--0--|--0--0--0--0--0--0--0--0--|
--------------------------|--------------------------|
--------------------------|--------------------------|


                                                                                
--------------------------|-------------------------|--------------------------|
--7--------7--------7-----|--8--------8-------------|--7--------7--------7-----|
--7--------7--------7-----|--7--------7--------5----|--7--------7--------7-----|
--0--0--0--0--0--0--0--0--|--0--0--0--0--0--0-------|--0--0--0--0--0--0--0--0--|
--------------------------|-------------------------|--------------------------|
--------------------------|-------------------------|--------------------------|


                                                                                
--------------------------|----------------0--------|--------------3-----------|
--8--------8--------8-----|-------------3-----3-----|-----------3-----3--------|
--7--------7--------7-----|----------4--------------|--------5-----------5-----|
--0--0--0--0--0--0--0-----|-------4-----------------|-----5-----------------5--|
-----------------------0--|--2-------------------3--|--3-----------------------|
--------------------------|-------------------------|--------------------------|


                                                      
--------------------------|--------------------------|
--3--3--3--3--3--3--3-----|-----------------------3--|
--2--2--2--2--2--2--2-----|-----------------------4--|
--0--0--0--0--0--0--0-----|-----------------------4--|
-----------------------5--|--5--5--5--5--5--5--5--2--|
-----------------------3--|--3--3--3--3--3--3--3-----|


                                                      
--------------------------|--------------------------|
--3--3--3--3--3--3--3-----|-----------------------3--|
--2--2--2--2--2--2--2-----|-----------------------4--|
--0--0--0--0--0--0--0-----|-----------------------4--|
-----------------------5--|--5--5--5--5--5--5--5--2--|
-----------------------3--|--3--3--3--3--3--3--3-----|


                                                                                
--------------------------|--------------------------|----------------0--------|
--3--3--3--3--3--3--3-----|-----------------------3--|-------------3-----3-----|
--2--2--2--2--2--2--2-----|-----------------------4--|----------4--------------|
--0--0--0--0--0--0--0-----|-----------------------4--|-------4-----------------|
-----------------------5--|--5--5--5--5--5--5--5--2--|--2-------------------3--|
-----------------------3--|--3--3--3--3--3--3--3-----|-------------------------|


                                                                      
--------------3-----------|--------------------|---------------------|
-----------3-----3--------|--------------------|------3--------------|
--------5-----------5-----|--4--------------2--|------2----2---------|
-----5-----------------5--|--4--------------2--|------4----2------5--|
--3-----------------------|--2--------------0--|------0----0------5--|
--------------------------|--------------------|------------------3--|


                                                                  
-------------------|------------------|--------------------------|
-------------------|------------------|--3--3--3--3--3--3--3-----|
-------------------|------------------|--2--2--2--2--2--2--2-----|
----------------5--|------------------|--0--0--0--0--0--0--0-----|
----------------5--|------------------|-----------------------5--|
----------------3--|------------------|-----------------------3--|


                                                              
---------------------------|---------------------------------|
-----------------------10--|--10--10--10--10--10--10--10-----|
-----------------------7---|--7---7---7---7---7---7---7------|
-----------------------0---|--0---0---0---0---0---0---0---5--|
--5--5--5--5--5--5--5------|------------------------------5--|
--3--3--3--3--3--3--3------|------------------------------3--|


                                                                            
--------------------------|-----------------------|------------------------|
--------------------------|--5------7----------8--|-------8-----5--7--7----|
--------------------------|--7------7----------7--|-------7-----7--7--7----|
--5--5--5--5--5--5--5--5--|--0------0----0--0--0--|----0--0--0--0--0--0----|
--5--5--5--5--5--5--5--5--|-----------------------|------------------------|
--3--3--3--3--3--3--3--3--|-----------------------|------------------------|


                                                                           
---------------------5--|--------7-----------8--|--------7-----5-----7----|
-------3-------------8--|--------8-----------8--|--------8-----8-----8----|
--4----4----2--------0--|--------0--0--0--0--0--|--0--0--0--0--0--0--0----|
--4---------2-----0-----|-----------------------|-------------------------|
--2---------0--0--0-----|-----------------------|-------------------------|
------------------3-----|-----------------------|-------------------------|


                                                                          
-----------------------|------------------------|---------------------5--|
--5------7----------8--|-------8-----5--7--7----|-------3-------------8--|
--7------7----------7--|-------7-----7--7--7----|--4----4----2--------0--|
--0------0----0--0--0--|----0--0--0--0--0--0----|--4---------2-----0-----|
-----------------------|------------------------|--2---------0--0--0-----|
-----------------------|------------------------|------------------3-----|


                                                                             
--------7-----------8--|--------7-----5-----7----|--------------------------|
--------8-----------8--|--------8-----8-----8----|--7--------7--------7-----|
--------0--0--0--0--0--|--0--0--0--0--0--0--0----|--7--------7--------7-----|
-----------------------|-------------------------|--0--0--0--0--0--0--0--0--|
-----------------------|-------------------------|--------------------------|
-----------------------|-------------------------|--------------------------|


                                                                                
--------------------------|--------------------------|-------------------------|
--8--------8--------8-----|--7--------7--------7-----|--8--------8-------------|
--7--------7--------7-----|--7--------7--------7-----|--7--------7--------5----|
--0--0--0--0--0--0--0--0--|--0--0--0--0--0--0--0--0--|--0--0--0--0--0--0-------|
--------------------------|--------------------------|-------------------------|
--------------------------|--------------------------|-------------------------|

[ Tab from: http://www.guitartabs.cc/tabs/p/poison/ride_the_wind_tab.html ]
                                                                                
--------------------------|--------------------------|----------------0--------|
--7--------7--------7-----|--8--------8--------8-----|-------------3-----3-----|
--7--------7--------7-----|--7--------7--------7-----|----------4--------------|
--0--0--0--0--0--0--0--0--|--0--0--0--0--0--0--0-----|-------4-----------------|
--------------------------|-----------------------0--|--2-------------------3--|
--------------------------|--------------------------|-------------------------|


                                                      
--------------3-----------|--------------------------|
-----------3-----3--------|--3--3--3--3--3--3--3-----|
--------5-----------5-----|--2--2--2--2--2--2--2-----|
-----5-----------------5--|--0--0--0--0--0--0--0-----|
--3-----------------------|-----------------------5--|
--------------------------|-----------------------3--|


                                                      
--------------------------|--------------------------|
-----------------------3--|--3--3--3--3--3--3--3-----|
-----------------------4--|--2--2--2--2--2--2--2-----|
-----------------------4--|--0--0--0--0--0--0--0-----|
--5--5--5--5--5--5--5--2--|-----------------------5--|
--3--3--3--3--3--3--3-----|-----------------------3--|


                                                      
--------------------------|--------------------------|
-----------------------3--|--3--3--3--3--3--3--3-----|
-----------------------4--|--2--2--2--2--2--2--2-----|
-----------------------4--|--0--0--0--0--0--0--0-----|
--5--5--5--5--5--5--5--2--|-----------------------5--|
--3--3--3--3--3--3--3-----|-----------------------3--|


                                                                                
--------------------------|----------------0--------|--------------3-----------|
-----------------------3--|-------------3-----3-----|-----------3-----3--------|
-----------------------4--|----------4--------------|--------5-----------5-----|
-----------------------4--|-------4-----------------|-----5-----------------5--|
--5--5--5--5--5--5--5--2--|--2-------------------3--|--3-----------------------|
--3--3--3--3--3--3--3-----|-------------------------|--------------------------|


                                                               
--------------------|---------------------|-------------------|
--------------------|------3--------------|-------------------|
--4--------------2--|------2----2---------|-------------------|
--4--------------2--|------4----2------5--|----------------5--|
--2--------------0--|------0----0------5--|----------------5--|
--------------------|------------------3--|----------------3--|


                                                                          
------------------|--------------------------|---------------------------|
------------------|--3--3--3--3--3--3--3-----|-----------------------10--|
------------------|--2--2--2--2--2--2--2-----|-----------------------7---|
------------------|--0--0--0--0--0--0--0-----|-----------------------0---|
------------------|-----------------------5--|--5--5--5--5--5--5--5------|
------------------|-----------------------3--|--3--3--3--3--3--3--3------|


                                                             
---------------------------------|--------------------------|
--10--10--10--10--10--10--10-----|--------------------------|
--7---7---7---7---7---7---7------|--------------------------|
--0---0---0---0---0---0---0---5--|--5--5--5--5--5--5--5--5--|
------------------------------5--|--5--5--5--5--5--5--5--5--|
------------------------------3--|--3--3--3--3--3--3--3--3--|


                                                                          
-----------------------|------------------------|---------------------5--|
--5------7----------8--|-------8-----5--7--7----|-------3-------------8--|
--7------7----------7--|-------7-----7--7--7----|--4----4----2--------0--|
--0------0----0--0--0--|----0--0--0--0--0--0----|--4---------2-----0-----|
-----------------------|------------------------|--2---------0--0--0-----|
-----------------------|------------------------|------------------3-----|


                                                                          
--------7-----------8--|--------7-----5-----7----|-----------------------|
--------8-----------8--|--------8-----8-----8----|--5------7----------8--|
--------0--0--0--0--0--|--0--0--0--0--0--0--0----|--7------7----------7--|
-----------------------|-------------------------|--0------0----0--0--0--|
-----------------------|-------------------------|-----------------------|
-----------------------|-------------------------|-----------------------|


                                                                          
------------------------|---------------------5--|--------7-----------8--|
-------8-----5--7--7----|-------3-------------8--|--------8-----------8--|
-------7-----7--7--7----|--4----4----2--------0--|--------0--0--0--0--0--|
----0--0--0--0--0--0----|--4---------2-----0-----|-----------------------|
------------------------|--2---------0--0--0-----|-----------------------|
------------------------|------------------3-----|-----------------------|


                                                                           
--------7-----5-----7----|------------------------|-----------------------|
--------8-----8-----8----|------------------------|------3-------------3--|
--0--0--0--0--0--0--0----|-------4~------4--x--2--|------2----2--2--x--0--|
-------------------------|--4----4~------4--x--2--|------4----2--2--x--0--|
-------------------------|--2---------2--------0--|------0----0-----x-----|
-------------------------|------------------------|--------------------3--|


                                                                          
------3-------------3--|------------------------|------------------------|
------3--x-----3----3--|------3--x--------3-----|------------------------|
------0--x-----0----0--|------0--x--------0-----|-------4~------4--x--2--|
------0--x-----0----0--|------0--x--------0-----|--4----4~------4--x--2--|
------------2----------|------------2--2-----2--|--2---------2--------0--|
--------------------3--|------------------------|------------------------|


                                                                         
-----------------------|------3-------------3--|------------------------|
------3-------------3--|------3--x-----3----3--|------3--x--------3-----|
------2----2--2--x--0--|------0--x-----0----0--|------0--x--------0-----|
------4----2--2--x--0--|------0--x-----0----0--|------0--x--------0-----|
------0----0-----x-----|------------2----------|------------2--2-----2--|
--------------------3--|--------------------3--|------------------------|


                                                                         
------------------------|-----------------------|------3-------------3--|
------------------------|------3-------------3--|------3--x-----3----3--|
-------4~------4--x--2--|------2----2--2--x--0--|------0--x-----0----0--|
--4----4~------4--x--2--|------4----2--2--x--0--|------0--x-----0----0--|
--2---------2--------0--|------0----0-----x-----|------------2----------|
------------------------|--------------------3--|--------------------3--|


                                                                          
------------------------|------------------------|-----------------------|
------3--x--------3-----|------------------------|------3-------------3--|
------0--x--------0-----|-------4~------4--x--2--|------2----2--2--x--0--|
------0--x--------0-----|--4----4~------4--x--2--|------4----2--2--x--0--|
------------2--2-----2--|--2---------2--------0--|------0----0-----x-----|
------------------------|------------------------|--------------------3--|


                                                                  
-------------------|------------------|--------0-----7-----5-----|
--3----------------|------------------|-----7-----------------0--|
--0----------------|------------------|--7--------7-----7--------|
--0----------------|------------------|--------------------------|
-------------------|------------------|--------------------------|
--3----------------|------------------|--------------------------|


                                                      
--------0-----7-----5-----|--------0-----5-----3-----|
-----5-----------------0--|-----5-----------------0--|
--6--------6-----6--------|--5--------5-----5--------|
--------------------------|--------------------------|
--------------------------|--------------------------|
--------------------------|--------------------------|


                                                      
--------0-----5-----3-----|--------0-----7-----5-----|
-----3-----3--------------|-----7-----------------0--|
--4--------------4-----0--|--7--------7-----7--------|
--------------------------|--------------------------|
--------------------------|--------------------------|
--------------------------|--------------------------|


                                                      
--------0-----7-----5-----|--------0-----5-----3-----|
-----5-----------------0--|-----5-----------------0--|
--6--------6-----6--------|--5--------5-----5--------|
--------------------------|--------------------------|
--------------------------|--------------------------|
--------------------------|--------------------------|


                                                      
--------0-----5-----3-----|--------0-----7-----5-----|
-----3-----3--------------|-----7-----------------0--|
--4--------------4-----0--|--7--------7-----7--------|
--------------------------|--------------------------|
--------------------------|--------------------------|
--------------------------|--------------------------|


                                                      
--------0-----7-----5-----|--------0-----5-----3-----|
-----5-----------------0--|-----5-----------------0--|
--6--------6-----6--------|--5--------5-----5--------|
--------------------------|--------------------------|
--------------------------|--------------------------|
--------------------------|--------------------------|


                                                                              
--------0-----5-----3-----||------------------------|------------------------|
-----3-----3--------------||---5------7----------8--|-------8-----5--7--7----|
--4--------------4-----0--||*--7------7----------7--|-------7-----7--7--7----|
--------------------------||*--0------0----0--0--0--|----0--0--0--0--0--0----|
--------------------------||------------------------|------------------------|
--------------------------||------------------------|------------------------|


                                                                           2x
---------------------5--|--------7-----------8--|--------7-----5-----7-----||
-------3-------------8--|--------8-----------8--|--------8-----8-----8-----||
--4----4----2--------0--|--------0--0--0--0--0--|--0--0--0--0--0--0--0----*||
--4---------2-----0-----|-----------------------|-------------------------*||
--2---------0--0--0-----|-----------------------|--------------------------||
------------------3-----|-----------------------|--------------------------||


                                                                             
--5------7-----------8--|--------7-----5--7--7-----|--5------7-----------8--|
--8------8-----------8--|--------8-----8--8--8-----|--8------8-----------8--|
--0------0--0--0--0--0--|--0--0--0--0--0--0--0--0--|--0------0--0--0--0--0--|
------------------------|--------------------------|------------------------|
------------------------|--------------------------|------------------------|
------------------------|--------------------------|------------------------|


                                                                  
--------7-----------------|-------------------|------------------|
--------8-----8-----------|--3----------------|------------------|
--0--0--0--0--0--5--5--5--|--2----------------|------------------|
-----------------5--5--5--|--0----------------|------------------|
-----------------3--3--3--|-------------------|------------------|
--------------------------|-------------------|------------------|


                                                                            
------------------|------------------|------------------|------------------|
------------------|------------------|------------------|------------------|
------------------|------------------|------------------|------------------|
------------------|------------------|------------------|------------------|
------------------|------------------|------------------|------------------|
------------------|------------------|------------------|------------------|


                                                                            
------------------|------------------|------------------|------------------|
------------------|------------------|------------------|------------------|
------------------|------------------|------------------|------------------|
------------------|------------------|------------------|------------------|
------------------|------------------|------------------|------------------|
------------------|------------------|------------------|------------------|


                                                          
------------------|------------------|------------------||
------------------|------------------|------------------||
------------------|------------------|------------------||
------------------|------------------|------------------||
------------------|------------------|------------------||
------------------|------------------|------------------||


c.c. guitar


                                                                                
D#||------------------|------------------|------------------|------------------|
A#||------------------|------------------|------------------|------------------|
F#||------------------|------------------|------------------|------------------|
C#||------------------|------------------|------------------|------------------|
G#||------------------|------------------|------------------|------------------|
D#||------------------|------------------|------------------|------------------|


                                                                            
------------------|------------------|------------------|------------------|
------------------|------------------|------------------|------------------|
------------------|------------------|------------------|------------------|
------------------|------------------|------------------|------------------|
------------------|------------------|------------------|------------------|
------------------|------------------|------------------|------------------|


                                                                            
------------------|------------------|------------------|------------------|
------------------|------------------|------------------|------------------|
------------------|------------------|------------------|------------------|
------------------|------------------|------------------|------------------|
------------------|------------------|------------------|------------------|
------------------|------------------|------------------|------------------|


                                                                            
------------------|------------------|------------------|------------------|
------------------|------------------|------------------|------------------|
------------------|------------------|------------------|------------------|
------------------|------------------|------------------|------------------|
------------------|------------------|------------------|------------------|
------------------|------------------|------------------|------------------|


                                                                            
------------------|------------------|------------------|------------------|
------------------|------------------|------------------|------------------|
------------------|------------------|------------------|------------------|
------------------|------------------|------------------|------------------|
------------------|------------------|------------------|------------------|
------------------|------------------|------------------|------------------|


                                                                            
------------------|------------------|------------------|------------------|
------------------|------------------|------------------|------------------|
------------------|------------------|------------------|------------------|
------------------|------------------|------------------|------------------|
------------------|------------------|------------------|------------------|
------------------|------------------|------------------|------------------|


                                                                            
------------------|------------------|------------------|------------------|
------------------|------------------|------------------|------------------|
------------------|------------------|------------------|------------------|
------------------|------------------|------------------|------------------|
------------------|------------------|------------------|------------------|
------------------|------------------|------------------|------------------|


                                                               
----------------5----|---------------------|------------------|
--5------7-----------|--8------5------7----|------------------|
---------------------|---------------------|------------------|
---------------------|---------------------|------------------|
---------------------|---------------------|------------------|
---------------------|---------------------|------------------|


                                                            
------------------|------------------|----------------5----|
------------------|------------------|--5------7-----------|
------------------|------------------|---------------------|
------------------|------------------|---------------------|
------------------|------------------|---------------------|
------------------|------------------|---------------------|


                                                                               
---------------------|------------------|------------------|------------------|
--8------5------7----|------------------|------------------|------------------|
---------------------|------------------|------------------|------------------|
---------------------|------------------|------------------|------------------|
---------------------|------------------|------------------|------------------|
---------------------|------------------|------------------|------------------|


                                                                            
------------------|------------------|------------------|------------------|
------------------|------------------|------------------|------------------|
------------------|------------------|------------------|------------------|
------------------|------------------|------------------|------------------|
------------------|------------------|------------------|------------------|
------------------|------------------|------------------|------------------|


                                                                            
------------------|------------------|------------------|------------------|
------------------|------------------|------------------|------------------|
------------------|------------------|------------------|------------------|
------------------|------------------|------------------|------------------|
------------------|------------------|------------------|------------------|
------------------|------------------|------------------|------------------|


                                                                            
------------------|------------------|------------------|------------------|
------------------|------------------|------------------|------------------|
------------------|------------------|------------------|------------------|
------------------|------------------|------------------|------------------|
------------------|------------------|------------------|------------------|
------------------|------------------|------------------|------------------|


                                                                            
------------------|------------------|------------------|------------------|
------------------|------------------|------------------|------------------|
------------------|------------------|------------------|------------------|
------------------|------------------|------------------|------------------|
------------------|------------------|------------------|------------------|
------------------|------------------|------------------|------------------|


                                                                            
------------------|------------------|------------------|------------------|
------------------|------------------|------------------|------------------|
------------------|------------------|------------------|------------------|
------------------|------------------|------------------|------------------|
------------------|------------------|------------------|------------------|
------------------|------------------|------------------|------------------|


                                                                            
------------------|------------------|------------------|------------------|
------------------|------------------|------------------|------------------|
------------------|------------------|------------------|------------------|
------------------|------------------|------------------|------------------|
------------------|------------------|------------------|------------------|
------------------|------------------|------------------|------------------|


                                                               
----------------5----|---------------------|------------------|
--5------7-----------|--8------5------7----|------------------|
---------------------|---------------------|------------------|
---------------------|---------------------|------------------|
---------------------|---------------------|------------------|
---------------------|---------------------|------------------|


                                                            
------------------|------------------|----------------5----|
------------------|------------------|--5------7-----------|
------------------|------------------|---------------------|
------------------|------------------|---------------------|
------------------|------------------|---------------------|
------------------|------------------|---------------------|


                                                            
---------------------|------------------|------------------|
--8------5------7----|------------------|------------------|
---------------------|------------------|------------------|
---------------------|------------------|------------------|
---------------------|------------------|------------------|
---------------------|------------------|------------------|


                                                                     
----------------------|------------------------|--------------------|
----------------------|------------------------|----------22r-------|
----------17b---17b---|--17r---------------14--|--------------------|
----------------------|------------16----------|--------------------|
----------------------|------------------------|--------------------|
----------------------|------------------------|--------------------|


                                                                            
------------------------------------|--------------------------19b---19b---|
--20~-------------------------------|--15-14-------17-15-14----------------|
------------16-14-12----16-14-14-12-|--------16-14----------16-------------|
---------------------16-------------|--------------------------------------|
------------------------------------|--------------------------------------|
------------------------------------|--------------------------------------|


                                                  
--19r-----19--19----------|----------------------|
--------------------------|----------------------|
----------------------16r-|--------16--16~-------|
--------------------------|----------------------|
--------------------------|----------------------|
--------------------------|----------------------|


                                                                                
----------------------------------------------|--------------------------------|
----------------------------------------------|--------------------------------|
----------------------------------------------|--------------------------------|
--16-16-x-16--16-16-16-16-16-16-x-12-12-12-12-|--12-x-9-9-9-9-9--9/7-7-7-7/9---|
----------------------------------------------|--------------------------------|
----------------------------------------------|--------------------------------|


                                                                            
------------------|------------------|------------------|------------------|
------------------|------------------|------------------|------------------|
------------------|------------------|------------------|------------------|
------------------|------------------|------------------|------------------|
------------------|------------------|------------------|------------------|
------------------|------------------|------------------|------------------|


                                                                            
------------------|------------------|------------------|------------------|
------------------|------------------|------------------|------------------|
------------------|------------------|------------------|------------------|
------------------|------------------|------------------|------------------|
------------------|------------------|------------------|------------------|
------------------|------------------|------------------|------------------|


                                                                            
------------------|------------------|------------------|------------------|
------------------|------------------|------------------|------------------|
------------------|------------------|------------------|------------------|
------------------|------------------|------------------|------------------|
------------------|------------------|------------------|------------------|
------------------|------------------|------------------|------------------|


                                                                            
------------------|------------------|------------------|------------------|
------------------|------------------|------------------|------------------|
------------------|------------------|------------------|------------------|
------------------|------------------|------------------|------------------|
------------------|------------------|------------------|------------------|
------------------|------------------|------------------|------------------|


                                                                            
------------------|------------------|------------------|------------------|
------------------|------------------|------------------|------------------|
------------------|------------------|------------------|------------------|
------------------|------------------|------------------|------------------|
------------------|------------------|------------------|------------------|
------------------|------------------|------------------|------------------|


                                                                 
|-----------------5----|---------------------|------------------|
|---5------7-----------|--8------5------7----|------------------|
|*---------------------|---------------------|------------------|
|*---------------------|---------------------|------------------|
|----------------------|---------------------|------------------|
|----------------------|---------------------|------------------|


                                      2x                                      
------------------|-------------------||------------------|------------------|
------------------|-------------------||------------------|------------------|
------------------|------------------*||------------------|------------------|
------------------|------------------*||------------------|------------------|
------------------|-------------------||------------------|------------------|
------------------|-------------------||------------------|------------------|


                                                                            
------------------|------------------|------------------|------------------|
------------------|------------------|------------------|------------------|
------------------|------------------|------------------|------------------|
------------------|------------------|------------------|------------------|
------------------|------------------|------------------|------------------|
------------------|------------------|------------------|------------------|


                                                                            
------------------|------------------|------------------|------------------|
------------------|------------------|------------------|------------------|
------------------|------------------|------------------|------------------|
------------------|------------------|------------------|------------------|
------------------|------------------|------------------|------------------|
------------------|------------------|------------------|------------------|


                                                                            
------------------|------------------|------------------|------------------|
------------------|------------------|------------------|------------------|
------------------|------------------|------------------|------------------|
------------------|------------------|------------------|------------------|
------------------|------------------|------------------|------------------|
------------------|------------------|------------------|------------------|


                                                          
------------------|------------------|------------------||
------------------|------------------|------------------||
------------------|------------------|------------------||
------------------|------------------|------------------||
------------------|------------------|------------------||
------------------|------------------|------------------||
Comments