Poison - Nothing But A Good Time Chords & Tabs

 

Nothing But A Good Time Chords & Tabs

Poison Chords & Tabs

Version: 1 Type: Tab 3 ratings
1 star 2 stars 3 stars 4 stars 5 stars
comments

Nothing But A Good Time Tab

   

INTRO


                                                             G5   D5    
-------------------------------------------------------------x----x-----
--14-14---15--14--15-------14------------14--15--14----------x----3-----
--14-14---14--14--14-------14------------14--14--14----------0----2-----
--14-14---16--14--16-------14------------14--16--14----------0----0-----
-----------------------16-------15--16----------------16-----x----x-----
-------------------------------------------------------------3----x-----



PART AFTER INTRO (before chorus)
[ Tab from: http://www.guitartabs.cc/tabs/p/poison/nothing_but_a_good_time_tab.html ]
                            G5   D5 
----------------------------x----x----------------------------------------
--14------14--15--15--14----x----2----------------------------------------
--14s-----14--14--14--14----0----3----------------------------------------
--14------14--16--16--14----0----0----------------------------------------
----------------------------x----x----------------------------------------
----------------------------3----x----------------------------------------




CHORUS

   A5   G5   D5   A5
---x----x----x----x-----------------------------------------------------
---x----x----3----x-----------------------------------------------------
---2----0----2----2-----------------------------------------------------
---2----0----0----2-----------------------------------------------------
---0----x----x----0-----------------------------------------------------
---x----3----x----x-----------------------------------------------------


Comments