Poison - Fallen Angel Chords & Tabs

 

Fallen Angel Chords & Tabs

Poison Chords & Tabs

Version: 1 Type: Tab 0 ratings
1 star 2 stars 3 stars 4 stars 5 stars
comments

Fallen Angel Tab

   
Intro
Play over and over
                     G                                   F
eb:------3------0------3------0-------3--0-|------3------0------3--3--0
Bb:------3------3------3------3-------3--3-|------3------3------3--3--3
Gb:------0------0------0------0-------0--0-|------0------0------0--0--0
Db:------0------0------0------0-------0--0-|------0------0------0--0--0
Ab:----------------------------------------|-3-3----3-3----3-3---------
Eb:-3-3----3-3----3-3----3-3-----3-3-------|---------------------------
[ Tab from: http://www.guitartabs.cc/tabs/p/poison/fallen_angel_tab.html ]
Verse
Play over and over
           G           F       D
eb:---3-0-3-0-3-0-|--3-0-0-|-2-3-2------------------------------------
Bb:---3-3-3-3-3-3-|--3-3-3-|-3-3-3------------------------------------
Gb:---0-0-0-0-0-0-|--0-0-0-|-2-2-2------------------------------------
Db:---0-0-0-0-0-0-|--2-2-2-|-0-0-0------------------------------------
Ab:---2-----------|-3------|------------------------------------------
Eb:-3-------------|--------|------------------------------------------

This song is really cool and I hope you enjoy it.  Be sure you tune 
down 1\2. 
Comments