Poison - Fallen Angel Chords & Tabs

 

Fallen Angel Chords & Tabs

Poison Chords & Tabs

Version: 1 Type: Bass Tab 0 ratings
1 star 2 stars 3 stars 4 stars 5 stars
comments

Fallen Angel Bass Tab

Poison-Fallen Angel  Bass
By:Justin Volz  justin_v99@hotmail.com

Riff 1:
|-----------------|-----------------|-----------------|
|-----------------|-----------------|-----------------|
|-----------------|-3~~~~~~~~~~~~~~-|-5~~~~~~~~~~~~~~-|
|-3~~~~~~~~~~~~~~-|-----------------|-----------------|


Riff 2:
|-----------------|-----------------|-----------------|-----------------|
|-----------------|-----------------|-----------------|-----------------|
|-----------------|-----------------|-3-3-3-3-3-3-3-3-|-5-5-5-5-5-5-5-5-|
|-3-3-3-3-3-3-3-3-|-3-3-3-3-3-3-3-3-|-----------------|-----------------|

Chorus:
|-----------------|-----------------|-----------------|-----------------|
|-----------------|-----------------|-------4-4-4-7-7-|-------4-4-4-7-7-|
|-------------2-2-|-------------2-2-|-5-5-5-----------|-5-5-5-----------|
|-0-0-0-3-3-3-----|-0-0-0-3-3-3-----|-----------------|-----------------|

|-----------------|-----------------|-----------------|
|-------2-2-2-5-5-|-------2-2-2-5-5-|-------4-4-4-7-7-|
|-3-3-3-----------|-3-3-3-----------|-5-5-5-----------|
|-----------------|-----------------|-----------------|

|-------------------|
|-------------------|
|-------------------|
|-10-10-8-8-7-7-5-5-|

Riff 3:
|-------------------------|-------------------------|-------------------------|
|-------------------------|-------4~~~~-7~~~~-------|-------2~~~~-5~~~~-------|
|-------------2~~~~-------|-5~~~~-------------5~~~~-|-3~~~~-------------3~~~~-|
|-0~~~~-3~~~~-------0~~~~-|-------------------------|-------------------------|
[ Tab from: http://www.guitartabs.cc/tabs/p/poison/fallen_angel_btab.html ]
|-----------------|-------------------|
|-------4-4-4-7-7-|-------------------|
|-5-5-5-----------|-------------------|
|-----------------|-10-10-8-8-7-7-5-5-|

Riff 4 (During Solo):
|-----------------|---------------|-----------------|-----------------|
|-----------------|---------------|-----------------|-----------------|
|-6-6-6-6-6-6-6-6-|-6-6-6-6-6-6-6-|-4-4-4-4-4-4-4-4-|-4-4-4-4-4-4-4-4-|
|-----------------|---------------|-----------------|-----------------|

|-----------------|-----------------|-----------------|-----------------|
|-----------------|-----------------|-----------------|-----------------|
|-2-2-2-2-2-2-2-2-|-2-2-2-2-2-2-2-2-|-4-4-4-4-4-4-4-4-|-4-4-4-4-4-4-4-4-|
|-----------------|-----------------|-----------------|-----------------|

|-----------------|-----------------|-----------------|-----------------|
|-----------------|-----------------|-----------------|-----------------|
|-6-6-6-6-6-6-6-6-|-6-6-6-6-6-6-6-6-|-4-4-4-4-4-4-4-4-|-4-4-4-4-4-4-4-4-|
|-----------------|-----------------|-----------------|-----------------|

|-----------------|-----------------|-----------------|---------------------|
|-----------------|-----------------|-----------------|---------------------|
|-2-2-2-2-2-2-2-2-|-2-2-2-2-2-2-2-2-|-4-4-4-4-4-4-4-4-|-4-4-4-4-4-4-4-4-4---|
|-----------------|-----------------|-----------------|-------------------3-|


			Notes:
			      Riff 1:x1
			      Riff 2:x6
			      Chorus:x1
			      Riff 2:x6
			      Chorus:x1
			      Riff 2:x2
			      Riff 3:x1
			      Riff 4:x1
			      Riff 1:x1
			      Riff 2:Until Song Fades Out
	There are a couple more single notes (first note in riff one) at
certain points in the song.  They're not worth making another riff for
though but they should be easy to pick out.  Enjoy!
Comments