Poison - Every Rose Has Its Thorn Chords & Tabs

 

Every Rose Has Its Thorn Chords & Tabs

Poison Chords & Tabs

Version: 6 Type: Tab 0 ratings
1 star 2 stars 3 stars 4 stars 5 stars
comments

Every Rose Has Its Thorn Tab

   
4.Every Rose Has It's thorn

mail me or comment on
riwaj_dustnbones@hotmail.com
poison_greatest_fan@hotmail.com
hysteria_defleppard_feelings@yahoo.com

intro:-
--3-3---3---3-3--3--3-3---|--------3---3-------3-3-3-3-|
--3-3---3---3-3--3--3-3---|--------3---3-------3-3-3-3-|
--0-0---0---0-0--0--0-0---|--0-----0---0-------0-0-0-0-|
--0-0---0---0-0--0--0-0---|--2--2--2---2---2---2-2-2-2-|
--------------------------|--3-----3---------3---------|
----3---------------------|----------------------------|

--------3----------3-3--3-|--------3---3-------3-3-3-3-|
--0-----3----------3-3--3-|--------3---3-------3-3-3-3-|
--0-----0------0---0-0--0-|--0--0--0---0-------0-0-0-0-|
-----0--0--------0-0-0--0-|--2--2--2---2-2-----2-2-2-2-|
--------------------------|-----3-----------3----------|
--------------------------|----------------------------|

RHYTM timing
=============

verse:4/4
=====
co-verse:2/4
========
riff: 4/4
====
xxxxxxxxxxxxxxxxxxxxxxxxxxxxxxxxxxxxxxxxxxxxxxxxxxxxxxxxxxxxxxxxxxxxxxxxxxxxxxxxxxxxxxxxxxxx
VERSE:
======
       G                           Cadd9
We both lie silently still in the dead of the night
      G
Although we both lie close together
       Cadd9
We feel miles apart inside

co-verse:
=========
      G                    Cadd9
Was it something i said orsomething i did
  G                Cadd9
did my words not come out right

riff
====
       D
though i tried not to hurt u
       C
though i tried But i guess thats why they say


bobby starts keyboard/piano here:-

(well as the chorus begins a kind of sound comes well i guess
it's from piano any way the guitar tabbed goes like this
mark the timin urself)

sounds dumb so better use keyboard
-------------------|------------------|-------------------|------------------|
-------------------|------------------|-------------------|------------------|
-------------------|------------------|-------------------|------------------|
--5~~~~~~~~~~~~~---|~~~~~~~~~~~--~~~~-|--5~~~~~~~~~~~~~---|~~~~~~~~~~~~~~----|
-------------------|------------------|-------------------|------------------|
-------------------|------------------|-------------------|------------------|

--------------------|-------------------|------------------|-------------------|
--------------------|-------------------|------------------|-------------------|
--------------------|-------------------|------------------|-------------------|
--5~~~~---7---------|--5----------------|------------------|--5----------------|
--------------------|-------------------|------------------|--3----------------|
--------------------|-------------------|------------------|-------------------|
                                                             This is from elec guitar byc.c.
every    cowboy


CHORUS:
======
   G
Every rose has its thorn
   Cadd9
just like every night has it's dawn
  G            D          C         G
just like every cowboy sings his sad sad song
   G                  Cadd9
Every rose has its thorn (THE Cadd9 is with a electric guitar )


the rhytm for solo:-

----------------3--------3-------|--------------3--3---3--3---|
-------0--------0----------0-----|--------------3--3---3--3---|
-------0--------0--0---------0---|--0-----0-----0--0---0--0---|
----------0----------0---------0-|--2--2--------2--2---2--2---|
-------------2---------2---------|--3--------3-------3------3-|
--3------------------------------|----------------------------|

----------------3--------3-------|--------------3--3---3--3---|
-------0--------0----------0-----|--------------1--1---1--1---|
-------0--------0--0---------0---|--0-----0-----0--0---0--0---|
----------0----------0---------0-|--2--2--------2--2---2--2---|
-------------2---------2---------|--3--------3-------3------3-|
--3------------------------------|----------------------------|

guitar inerlude/solo:
=================
 G   Cadd9      G
-----------------------------------------------------15^-15~~-----------3~|
-----15^-15~~-----------------13-12~h13r12~------------------12^12~~----3~|
-14~~--------------12-14-12-----------------14^-14~---------------------0~|
--------------12-14--------14-------------------------------------------0~|
------------------------------------------------------------------------2~|
------------------------------------------------------------------------3~|

verse2 ,riff and chorus(same as above)
at the 2nd verse:-

 n' i know that u'd be here right now
|--2----3p-2-----2---0---3-2-0-----|
|--3----------3----3---3-------3---|
|--2-------------------------------|
|--0-------------------------------|
|----------------------------------|
|----------------------------------|


if i could have let u...   chorus pluugin
--0----0-0---0--0--0--0-0-|--------3--------------3--------|
--1----1-1---1--1--1--1-1-|-----------3--------------3-----|
--0----0-0---0--0--0--0-0-|-------------0--------------0---|
--2----2-2---2--2--2--2-2-|------0--------0-----0--------0-|
--3----------3-----3----3-|----2--------------2------------|
--------------------------|--3--------------3--------------|

--------3--------------3--------|--------3--------------3--------|
-----------3--------------3-----|-----------3--------------3-----|
------0------0-------0------0---|-------------0--------------0---|
----2----------2---2----------2-|------0--------0-----0--------0-|
--3--------------3--------------|----2--------------2------------|
--------------------------------|--3--------------3--------------|

--------3--------------3--------|--------3--------------2-3p2-----|
-----------3--------------3-----|-----------3---------3-------3---|
------0------0-------0------0---|------0------0-----2-----------2-|
----2----------2---2----------2-|----2----------0-0---------------|
--3--------------3--------------|--3------------------------------|
--------------------------------|---------------------------------|

--------3--------------3--------|--------3--------------3--------|
-----------1--------------3-----|-----------1--------------3-----|
------0------0--------------0---|------0------0--------------0---|
----2----------2-----0--------0-|----2----------2-----0--------0-|
--3----------------2------------|--3----------------2------------|
-----------------3--------------|-----------------3--------------|

[ Tab from: http://www.guitartabs.cc/tabs/p/poison/every_rose_has_its_thorn_tab_ver_6.html ]
                    bridge                               f# at the end before going back to Em
--0----------------|--------------------|---------------------|
--1----------------|--8-----------------|---------------------|
--0----------------|--9--------7--------|--5------------------|
--2----------------|--9--------7--------|--5--------5----4----|
--3----------------|--7--------5--------|--3--------5----4----|
-------------------|--------------------|-----------3----2----|

--------------------|-------------------|------------------|------------------|
--8-----------------|-------------------|------------------|------------------|
--9--------7--------|--5----------------|------------------|------------------|
--9--------7--------|--5----------------|------------------|------------------|
--7--------5--------|--3----------------|------------------|------------------|
--0-----------------|-------------------|------------------|------------------|


bridge
  Em              D
Though it's been a while now
  C               G          F#
i can still feel so much pain
  Em               D
like a knife that cuts you the wound heals
  C                             G...(CONTD..)
but the scar that scar remains.

solo:
=====

(rhytm pattern==  G Cadd9 X2)
(             == Em D C G X2)

G(contd.) Cadd9                    G     Cadd9
-------------------------------------------------------|
---------13-12-13-12-15^----15b----------------15------|~~~~=straight bend then roll
-----16^----------------14b---14^-12b\-----------------|
-14b---------------------------------------------------|
-------------------------------------------------------|
-------------------------------------------------------|

                            change in chord progression
                         ----------------------------------
Cadd9                                            Em
------------------------------------------------------|
-13p12---12-------------------------------------------|
-------14--14-12---14p12-14----11-12-11---------------|
---------------------------------------------/14-12^--|
------------------------------------------------------|
------------------------------------------------------|
      fast

=========
=========
    D      C       G         Em   D
-------------------15---15---15-----------------------|
----------------15^--15^--15^-------------------------|
--11b-12b-----------------------11b-12b---------------|
---------12/14^\------------------------12/14---------|
------------------------------------------------------|
------------------------------------------------------|
           C                                            G
--------------17p15----15-19p15-17p15----15-19p15-17p15----15~15-|ring
--------------------17----------------17----------------17-------|
---------x-16----------------------------------------------------|
-----------------------------------------------------------------|
-----------------------------------------------------------------|
-----------------------------------------------------------------|

after solo

--3-------------3--3-|--3-------------3--3-|--3-------------3-3-3-|
--3-------------3--3-|--1-------------1--1-|--3-------------3-3-3-|
--0---break-----0--0-|--0---break-----0--0-|--0-------------0-0-0-|
--0-------------0--0-|--2-------------2--2-|--0-------------0-0-0-|
--2-------------2--2-|--3-------------3--3-|--2-------------2-2-2-|
--3-------------3--3-|---------------------|--3-------------3-3-3-|

--3-------------3-3-3-|--3-------------3-3-3-|--3-------------3--3-|
--1-------------1-1-1-|--3-------------3-3-3-|--1-------------1--1-|
--0-------------0-0-0-|--0-------------0-0-0-|--0-------------0--0-|
--2-------------2-2-2-|--0-------------0-0-0-|--2-------------2--2-|
--3-------------3-3-3-|----------------------|--3-------------3--3-|
----------------------|----------------------|---------------------|

--3-------------3-3-3-|--3----------------|--|
--3-------------3-3-3-|--1----------------|--|
--0-------------0-0-0-|--0----------------|--|
--0-------------0-0-0-|--2----------------|--|
----------------------|--3----------------|--|
----------------------|-------------------|--|

bass enters:=


---------------------------------------------------|
---------------------------------------------------|
---------------------------------------------------|
---------------------------------------------------|
--10/12-10---10------------------------------------|
----------10----10\3-------------------------------|


outro:-

|-------------------|
|-------------------|
|---------14~-14p12-|
|-------------------|
|-------------------|
|-------------------|

----------------------------------------|------------------------------|
-------------------------15-------------|------------13-12------15-----|
--14~---11--12--13--14~-----14r14-14r14-|--12---------------14b----14r-|
----------------------------------------|------------------------------|
----------------------------------------|------------------------------|
----------------------------------------|------------------------------|

--------------------|------------------------|--------------------|
--------------------|------15~---15----------|--------------------|
--12----------------|------------------14~---|--12----------------|
--------------------|------------------------|--------------------|
--------------------|------------------------|--------------------|
--------------------|------------------------|--------------------|

--------------------------------------|--------------------------|
--------------------13-12------15-----|------------------13-12---|
-----------12h14-12--------14~----14~-|--12--------14----------12|
-----12h14----------------------------|--------------------------|
--------------------------------------|--------------------------|
--------------------------------------|--------------------------|

--------------3-------------------------------------|
--------------3-------------------------------------|
--------------0-------------------------------------|
--------0-----0-------------------------------------|
------0-------2-------------------------------------|
--0-2------0--3-------------------------------------|
Comments