Point N Laf - Memorial Chords & Tabs

 

Memorial Chords & Tabs

Point N Laf Chords & Tabs

Version: 1 Type: Tab 0 ratings
1 star 2 stars 3 stars 4 stars 5 stars
comments

Memorial Tab

Point 'N' Laf
Daves Song
Lyrics written by: Point 'N' Laf
Music written by: Christian Cox
Tuning: Standard 6 String 
symbols:
~= let note ring
pm= palm mute
*= natural harmonics 

Intro
|--------------------------|--------------------------|--------------------------|--------------------------|
|--------------------------|--------------------------|--------------------------|--------------------------|
|--------------------------|--------------------------|--------------------------|--------------------------|
|----4----4----4----4----4-|----5----5----5----5----5-|----4----4----4----4----4-|----5----5----5----5----5-|
|--2----2----2----2----2---|--3----3----3----3----3---|--2----2----2----2----2---|--3----3----3----3----3---|
|0----0----0----0----0-----|0----0----0----0----0-----|0----0----0----0----0-----|0----0----0----0----0-----|

Verse

1.          We've thought about the good times we had, but dreaded the work we had to do.
2.          We thought that you were the best mentor, better than karen leah, or frank.
|--------------------------|--------------------------|--------------------------|--------------------------|
|--------------------------|--------------------------|--------------------------|--------------------------|
|--------------------------|--------------------------|--------------------------|--------------------------|
|----4----4----4----4----4-|----5----5----5----5----5-|----4----4----4----4----4-|----7----7----7----7----7-|
|--2----2----2----2----2---|--3----3----3----3----3---|--2----2----2----2----2---|--5----5----5----5----5---|
|0----0----0----0----0-----|0----0----0----0----0-----|0----0----0----0----0-----|0----0----0----0----0-----|

	But nothing can beat the the fun times we had, especially when we were with you.
	And to all of the  fun   that we   ha    -  d, you are the one to thank.
|--------------------------|--------------------------|--------------------------|--------------------------|
|--------------------------|--------------------------|--------------------------|--------------------------|
|--------------------------|--------------------------|--------------------------|--------------------------|
|----4----4----4----4----4-|----5----5----5----5----5-|----4----4----4----4----4-|----7----7----7----7----7-|
|--2----2----2----2----2---|--3----3----3----3----3---|--2----2----2----2----2---|--5----5----5----5----5---|
|0----0----0----0----0-----|0----0----0----0----0-----|0----0----0----0----0-----|0----0----0----0----0-----|

	We're   glad   you   were   our tea   -   cher, it was fun, the things we did.
	Now   that  we ha  -  ve   gra - du - at - ed,  from our middle school, exploris.
|--------------------------|--------------------------|--------------------------|--------------------------|
|--------------------------|--------------------------|--------------------------|--------------------------|
|----4----4----4----4----4-|----5----5----5----5----5-|----4----4----4----4----4-|----7----7----7----7----7-|
|--2----2----2----2----2---|--3----3----3----3----3---|--2----2----2----2----2---|--5----5----5----5----5---|
|0----0----0----0----0-----|0----0----0----0----0-----|0----0----0----0----0-----|0----0----0----0----0-----|
|--------------------------|--------------------------|--------------------------|--------------------------|
	
	When I get ol  -  der,   I'll think of that  as the best years as a kid
	we  will  go  on    to   high  -  school,  thinking of the good times we will miss.
|--------------------------|--------------------------|--------------------------|--------------------------|
|--------------------------|--------------------------|--------------------------|--------------------------|
|----4----4----4----4----4-|----5----5----5----5----5-|----4----4----4----4----4-|----7----7----7----7----7-|
|--2----2----2----2----2---|--3----3----3----3----3---|--2----2----2----2----2---|--5----5----5----5----5---|
|0----0----0----0----0-----|0----0----0----0----0-----|0----0----0----0----0-----|0----0----0----0----0-----|
|--------------------------|--------------------------|--------------------------|--------------------------|

Pre-chorus
[ Tab from: http://www.guitartabs.cc/tabs/p/point_n_laf/memorial_tab.html ]
|--------------------------|--------------------------|--------------------------|--------------------------|
|--------------------------|--------------------------|--------------------------|--------------------------|
|--------------------------|--------------------------|--------------------------|--------------------------|
|----9----7----5----4----2-|----9----7----5----4----2-|----9----7----5----4----2-|----9----7----5----4----2-|
|--7----5----3----2----0---|--7----5----3----2----0---|--7----5----3----2----0---|--7----5----3----2----0---|
|0----0----0----0----0-----|0----0----0----0----0-----|0----0----0----0----0-----|0----0----0----0----0-----|


Chorus 1.

 Now that we're in high school, working day after day.  we write this song for you just so that we can say...
|-----------------------------------------------------------------------------------------------------------|
|-----------------------------------------------------------------------------------------------------------|
|-----------------------------------------------------------------------------------------------------------|
|-9-----9----9-9--9-9----9--7-----7----7-7--7-7----7----5-----5----5-5--5-5----5--4-4-4-4--2-2-2-2--2-2-2-2-|
|-7-----7----7-7--7-7----7--5-----5----5-5--5-5----5----3-----3----3-3--3-3----3--2-2-2-2--0-0-0-0--0-0-0-0-|
|-0-----0----0-0--0-0----0--0-----0----0-0--0-0----0----0-----0----0-0--0-0----0--0-0-0-0--0-0-0-0--0-0-0-0-|

 Now that we're in high school, working day after day.  we write this song for you just so that we can say...
|-----------------------------------------------------------------------------------------------------------|
|-----------------------------------------------------------------------------------------------------------|
|-----------------------------------------------------------------------------------------------------------|
|-9-----9----9-9--9-9----9--7-----7----7-7--7-7----7----5-----5----5-5--5-5----5--4-4-4-4--2-2-2-2--2-2-2-2-|
|-7-----7----7-7--7-7----7--5-----5----5-5--5-5----5----3-----3----3-3--3-3----3--2-2-2-2--0-0-0-0--0-0-0-0-|
|-0-----0----0-0--0-0----0--0-----0----0-0--0-0----0----0-----0----0-0--0-0----0--0-0-0-0--0-0-0-0--0-0-0-0-|

Pre-chorus 2.

|--------------------------|--------------------------|--------------------------|--------------------------|
|--------------------------|--------------------------|--------------------------|--------------------------|
|--------------------------|--------------------------|--------------------------|--------------------------|
|----9----7----5----4----2-|----9----7----5----4----2-|----9----7----5----4----2-|----9----7----5----4----2-|
|--7----5----3----2----0---|--7----5----3----2----0---|--7----5----3----2----0---|--7----5----3----2----0---|
|0----0----0----0----0-----|0----0----0----0----0-----|0----0----0----0----0-----|0----0----0----0----0-----|


Chorus 2.

 Now that we're in high school, working day after day.  we write this song for you just so that we can say...
|-----------------------------------------------------------------------------------------------------------|
|-----------------------------------------------------------------------------------------------------------|
|-----------------------------------------------------------------------------------------------------------|
|-9-----9----9-9--9-9----9--7-----7----7-7--7-7----7----5-----5----5-5--5-5----5--4-4-4-4--2-2-2-2--2-2-2-2-|
|-7-----7----7-7--7-7----7--5-----5----5-5--5-5----5----3-----3----3-3--3-3----3--2-2-2-2--0-0-0-0--0-0-0-0-|
|-0-----0----0-0--0-0----0--0-----0----0-0--0-0----0----0-----0----0-0--0-0----0--0-0-0-0--0-0-0-0--0-0-0-0-|

 Now that we're in high school, working day after day.  we write this song for you just so that we can say...
|-----------------------------------------------------------------------------------------------------------|
|-----------------------------------------------------------------------------------------------------------|
|-----------------------------------------------------------------------------------------------------------|
|-9-----9----9-9--9-9----9--7-----7----7-7--7-7----7----5-----5----5-5--5-5----5--4-4-4-4--2-2-2-2--2-2-2-2-|
|-7-----7----7-7--7-7----7--5-----5----5-5--5-5----5----3-----3----3-3--3-3----3--2-2-2-2--0-0-0-0--0-0-0-0-|
|-0-----0----0-0--0-0----0--0-----0----0-0--0-0----0----0-----0----0-0--0-0----0--0-0-0-0--0-0-0-0--0-0-0-0-|

        We'll miss you.

|----------------------|
|----------------------|
|----------------------|
|--9~~~~~~~~~~~~~~~~~~~|
|--7~~~~~~~~~~~~~~~~~~~|
|--0~~~~~~~~~~~~~~~~~~~|
Comments