Pogues - Young Ned Of The Hill Chords & Tabs

 

Young Ned Of The Hill Chords & Tabs

Pogues Chords & Tabs

Version: 2 Type: Tab 0 ratings
1 star 2 stars 3 stars 4 stars 5 stars
comments

Young Ned Of The Hill Tab

#----------------------------------PLEASE NOTE---------------------------------#
#This file is the author's own work and represents their interpretation of the #
#song. You may only use this file for private study, scholarship, or research. #
#------------------------------------------------------------------------------##
From: t89par@albireo.tdb.uu.se (Par Svensson)
THE POGUES - 'Young Ned Of The Hill'
Comments, corrections etc. welcome.
Par Svensson, t89par@tdb.uu.se
[ Tab from: http://www.guitartabs.cc/tabs/p/pogues/young_ned_of_the_hill_tab_ver_2.html ]
Riff #1:
e ---------------------------------------------------------8-8-6----
B -----------6-------------------------------6-----6---6-8-------8--
G -----5-7-8---7-------5-7-5-----------5-7-8---7-8---8--------------
D -5-8-----------8-5-8-------8-5---5-8------------------------------
A -------------------------------8----------------------------------
E ------------------------------------------------------------------

  -----8-8-6--------------------------------------------------------
  -6-8-------8---------6---------------------6-----------8-6--------
  -------------5-5-7-8---8-7-5-7-------5-7-8---7-------5-----7---5--
  -------------------------------8-5-8-----------8-5-8---------8----
  ------------------------------------------------------------------
  ------------------------------------------------------------------
Riff #2:
e ----------------------------------------
B ----------------------------------------
G ---------------------5------------------
D -8-5-------------------8-5--------------
A -----8-6---6-8---6-8-------8-6---6-8----
E ---------8-----8---------------8-----8--

Play it: #1 #1 #2 #1 #1 #2 etc.

Comments