Pogues - Wake Of The Medusa Intro Chords & Tabs

 

Wake Of The Medusa Intro Chords & Tabs

Pogues Chords & Tabs

Version: 1 Type: Chords 0 ratings
1 star 2 stars 3 stars 4 stars 5 stars
comments

Wake Of The Medusa Intro Chords

   
***The Wake of the Medusa - by Jem Finer
from the album 'Hell's Ditch'

Intro:

e|-----------|
B|-----------|
G|-----------|
D|-7-7-7-7-7-| Pedal this note for a while
A|-----------|
E|-----------|

then...

e|---------|
B|---------|
G|---------| 
D|-------2-| (9x)
A|-----0---|
E|-0-3-----|

    Melody:
      Am	
e|----------------------------------------------------------|
B|----------------------------------------------------------|
G|-------6-----9-10-9-10-12-10-9--7--12-10-9-7-6--6-7-6-----|
D|---5-7---8-7------------------------------------------8-7-|  
A|-7--------------------------------------------------------|
E|----------------------------------------------------------|

 
wl
[ Tab from: http://www.guitartabs.cc/tabs/p/pogues/wake_of_the_medusa_intro_crd.html ]
Melody (2x)
 
C G Am F
C G Am

Play Melody (2x) over the first part of the intro guitar part

Outro:

e|-----------------|
B|-----------------|
G|---9-7-5---------|
D|-7-------5-7---5-|  
A|-------------7---|
E|-----------------|

***Version 2*** by Kristoffer Ekman

Intro	|Am	|Am	|Am	|Am	||

    Inst 2	||:Am	|Am	|Am	|Am	:||

 the rope

Outro	|C     G|Am    F|C     G|Am    Em     Am||
	||:Am	|Am	|Am	|Am	|Am	|Am	|Am	|Am	:||

Comments